Oops, an error
Loading. Please wait.

Watcher Tab

version 1
version 1

Whole song

Interactive

181 views 1 this week
no commentswrite comment
1 2 3 4 5
please rate
add to favorites
launch autoscroll
font size
0
reset
how to read this tab
guitar tuner
Autoscroll
slow
fast
+/-
esc
set tempo
stop
Help us to improve Ultimate-Guitar.com Take our survey!
×
Winter Solstice 
Fall Of Rome
Watcher

Lead Guitar

INTRO
D|-----------------------------------|-----------------------------|
A|-----------------------------------|-----------------------------|
F|-----------------------------------|-----------------------------|
C|--------------------------------7--|--------------------------5--|
G|12/-0---5---3---5---8---7---5---5--|--5---3---5---8---7---5---3--|
C|12/-0-0---0---0---0---0---0---0----|0---0---0---0---0---0---0----|
        *   *   *   *   *   *   *     *   *   *   *   *   *   *           
D|--------------------------------------------|
A|--------------------------------------------|
F|--------------------------------------------|
C|--------------------------------------------|
G|--5---3---5---8---7---5---8-88-888-1-11-111-|
C|0---0---0---0---0---0---0-8-88-888-1-11-111-|
  *   *   *   *   *   *   *
D|-------------------------------|-----------------------------|
A|-------------------------------|-----------------------------|
F|-------------------------------|-----------------------------|
C|----------------------------7--|--------------------------5--|
G|0---5---3---5---8---7---5---5--|--5---3---5---8---7---5---3--|
C|0-0---0---0---0---0---0---0----|0---0---0---0---0---0---0----|
    *   *   *   *   *   *   *     *   *   *   *   *   *   *
D|--------------------------------------------|
A|--------------------------------------------|
F|--------------------------------------------|
C|--------------------------------------------|
G|--5---3---5---8---7---5---8-88-888-5-55-555-|
C|0---0---0---0---0---0---0-8-88-888-5-55-555-|
  *   *   *   *   *   *   *
D|-------------------------------|-----------------------------|
A|-------------------------------|-----------------------------|
F|-------------------------------|-----------------------------|
C|----------------------------7--|--------------------------5--|
G|0---5---3---5---8---7---5---5--|--5---3---5---8---7---5---3--|
C|0-0---0---0---0---0---0---0----|0---0---0---0---0---0---0----|
    *   *   *   *   *   *   *     *   *   *   *   *   *   *
D|--------------------------------------------|
A|--------------------------------------------|
F|--------------------------------------------|
C|--------------------------------------------|
G|--5---3---5---8---7---5---8-88-888-1-11-111-|
C|0---0---0---0---0---0---0-8-88-888-1-11-111-|
  *   *   *   *   *   *   *
D|-------------------------------|-----------------------------|
A|-------------------------------|-----------------------------|
F|-------------------------------|-----------------------------|
C|----------------------------7--|--------------------------5--|
G|0---5---3---5---8---7---5---5--|--5---3---5---8---7---5---3--|
C|0-0---0---0---0---0---0---0----|0---0---0---0---0---0---0----|
    *   *   *   *   *   *   *     *   *   *   *   *   *   *
D|--------------------------------------------|
A|--------------------------------------------|
F|--------------------------------------------|
C|--------------------------------------------|
G|--5---3---5---8---7---5---8-88-888-5-55-555-|
C|0---0---0---0---0---0---0-8-88-888-5-55-555-|
  *   *   *   *   *   *   *
PRE-CHORUS
D|--------------------------------------------------------|
A|--------------------------------------------------------|
F|--------------------------------------------------------|
C|--------------------------------------------------------|
G|0-----8-----3-----------/5-----0-----8-----/5--/8--/7---|
C|0-----8-----3-----2-----/5-----0-----8------------------|

CHORUS
D|----------------------------------------------------|
A|----------------------------------------------------|
F|----------------------------------------------------|
C|----------------------------------------------------|-----|
G|---555----5----7---5---3-----555----5----7---5---3--|     |
C|00-----00---00---0---0----00-----00---00---0---0----|     | 
  **     **   **   *   *    **     **   **   *   *          |
D|---------------------------------------------|            |
A|---------------------------------------------|            |
F|---------------------------------------------|            4x 
C|---------------------------------------------|            |
G|---888----8----8---10-----888----8----8---7--|------------|
C|00-----00---00---0-----00-----00---00---0----|
  **     **   **   *     **     **   **   *
D|-------------------------------|-----------------------------|
A|-------------------------------|-----------------------------|
F|-------------------------------|-----------------------------|
C|----------------------------7--|--------------------------5--|
G|0---5---3---5---8---7---5---5--|--5---3---5---8---7---5---3--|
C|0-0---0---0---0---0---0---0----|0---0---0---0---0---0---0----|
    *   *   *   *   *   *   *     *   *   *   *   *   *   *
D|--------------------------------------------|
A|--------------------------------------------|
F|--------------------------------------------|
C|--------------------------------------------|
G|--5---3---5---8---7---5---8-88-888-1-11-111-|
C|0---0---0---0---0---0---0-8-88-888-1-11-111-|
  *   *   *   *   *   *   *
D|-------------------------------|-----------------------------|
A|-------------------------------|-----------------------------|
F|-------------------------------|-----------------------------|
C|----------------------------7--|--------------------------5--|
G|0---5---3---5---8---7---5---5--|--5---3---5---8---7---5---3--|
C|0-0---0---0---0---0---0---0----|0---0---0---0---0---0---0----|
    *   *   *   *   *   *   *     *   *   *   *   *   *   *
D|--------------------------------------------|
A|--------------------------------------------|
F|--------------------------------------------|
C|--------------------------------------------|
G|--5---3---5---8---7---5---8-88-888-5-55-555-|
C|0---0---0---0---0---0---0-8-88-888-5-55-555-|
  *   *   *   *   *   *   *
PRE-CHORUS
D|--------------------------------------------------------|
A|--------------------------------------------------------|
F|--------------------------------------------------------|
C|--------------------------------------------------------|
G|0-----8-----3-----------/5-----0-----8-----/5--/8--/7---|
C|0-----8-----3-----2-----/5-----0-----8------------------|

CHORUS
D|----------------------------------------------------|
A|----------------------------------------------------|
F|----------------------------------------------------|
C|----------------------------------------------------|-----|
G|---555----5----7---5---3-----555----5----7---5---3--|     |
C|00-----00---00---0---0----00-----00---00---0---0----|     | 
  **     **   **   *   *    **     **   **   *   *          |
D|---------------------------------------------|            |
A|---------------------------------------------|            |
F|---------------------------------------------|            4x 
C|---------------------------------------------|            |
G|---888----8----8---10-----888----8----8---7--|------------|
C|00-----00---00---0-----00-----00---00---0----|
  **     **   **   *     **     **   **   *

Key
* = Palm Mute
/ = Slide

sexpistols31@yahoo.com
myspace.com/373406646


more coming soon!!!
Suggest correction
Give kudos to tab author, rate the tab!
1 2 3 4 5
comments
print report bad tab
guest
You may want to rate the tab now too:
select rating
Wanna post a correction for this tab? Suggest correction