Oops, an error
Loading. Please wait.

Watcher Tab

version 2
version 2

Intro

Whole song

Interactive

75 views 1 this week
no commentswrite comment
1 2 3 4 5
please rate
add to favorites
launch autoscroll
font size
0
reset
how to read this tab
guitar tuner
Tab Pro tools
  • play this tab
  • loop segment
  • change instrument
  • show fretboard
  • metronome
Autoscroll
slow
fast
+/-
esc
set tempo
stop
Contributor
Winter Solstice 
Fall Of Rome
Watcher

2nd Guitar

INTRO
D|--------------------------------------------|
A|--------------------------------------------|
F|--------------------------------------------|
C|--------------------------------------------|
G|12/-0---------------------8-88-888-1-11-111-|
C|12/-0---------------------8-88-888-1-11-111-|

D|-------------------------------|-----------------------------|
A|-------------------------------|-----------------------------|
F|-------------------------------|-----------------------------|
C|----------------------------7--|--------------------------5--|
G|0---5---3---5---8---7---5---5--|--5---3---5---8---7---5---3--|
C|0-0---0---0---0---0---0---0----|0---0---0---0---0---0---0----|
    *   *   *   *   *   *   *     *   *   *   *   *   *   *   
D|--------------------------------------------|
A|--------------------------------------------|
F|--------------------------------------------|
C|--------------------------------------------|
G|--5---3---5---8---7---5---8-88-888-5-55-555-|
C|0---0---0---0---0---0---0-8-88-888-5-55-555-|
  *   *   *   *   *   *   *
D|-------------------------------|-----------------------------|
A|-------------------------------|-----------------------------|
F|-------------------------------|-----------------------------|
C|----------------------------7--|--------------------------5--|
G|0---5---3---5---8---7---5---5--|--5---3---5---8---7---5---3--|
C|0-0---0---0---0---0---0---0----|0---0---0---0---0---0---0----|
    *   *   *   *   *   *   *     *   *   *   *   *   *   *
D|--------------------------------------------|
A|--------------------------------------------|
F|--------------------------------------------|
C|--------------------------------------------|
G|--5---3---5---8---7---5---8-88-888-1-11-111-|
C|0---0---0---0---0---0---0-8-88-888-1-11-111-|
  *   *   *   *   *   *   *
D|-------------------------------|-----------------------------|
A|-------------------------------|-----------------------------|
F|-------------------------------|-----------------------------|
C|----------------------------7--|--------------------------5--|
G|0---5---3---5---8---7---5---5--|--5---3---5---8---7---5---3--|
C|0-0---0---0---0---0---0---0----|0---0---0---0---0---0---0----|
    *   *   *   *   *   *   *     *   *   *   *   *   *   *
D|--------------------------------------------|
A|--------------------------------------------|
F|--------------------------------------------|
C|--------------------------------------------|
G|--5---3---5---8---7---5---8-88-888-5-55-555-|
C|0---0---0---0---0---0---0-8-88-888-5-55-555-|
  *   *   *   *   *   *   *
PRE-CHORUS
D|--------------------------------------------------------------|
A|--------------------------------------------------------------|
F|--------------------------------------------------------------|
C|--------------------------------------------------------------|
G|0-----8-----3-----------/5-----0-----8-----3-----------/5-----|
C|0-----8-----3-----2-----/5-----0-----8-----3-----2-----/5-----|

CHORUS
D|-------------------------------------------------------------------|
A|-------------------------------------------------------------------|
F|-------------------------------------------------------------------|
C|-------------------------------------------------------------------|
G|3333333333-5555555555----555----5----5---6------555----5----5---3--|
C|3333333333-5555555555-00-----00---00---0----00------00---00---0----|
                        **     **   **   *    **      **   **   *
D|-------------------------------------------------------------------|
A|-------------------------------------------------------------------|
F|-------------------------------------------------------------------|
C|-------------------------------------------------------------------|
G|1010101010-8888888888----555----5----5---6------555----5----5---3--|
C|1010101010-8888888888-00-----00---00---0----00------00---00---0----|
                        **     **   **   *    **      **   **   *
D|-------------------------------------------------------------------|
A|-------------------------------------------------------------------|
F|-------------------------------------------------------------------|
C|-------------------------------------------------------------------|
G|3333333333-5555555555----555----5----5---6------555----5----5---3--|
C|3333333333-5555555555-00-----00---00---0----00------00---00---0----|
                        **     **   **   *    **      **   **   *
D|-------------------------------------------------------------------|
A|-------------------------------------------------------------------|
F|-------------------------------------------------------------------|
C|-------------------------------------------------------------------|
G|1010101010-8888888888----555----5----5---6------555----5----5---3--|
C|1010101010-8888888888-00-----00---00---0----00------00---00---0----|
                        **     **   **   *    **      **   **   *
D|-------------------------------|-----------------------------|
A|-------------------------------|-----------------------------|
F|-------------------------------|-----------------------------|
C|----------------------------7--|--------------------------5--|
G|0---5---3---5---8---7---5---5--|--5---3---5---8---7---5---3--|
C|0-0---0---0---0---0---0---0----|0---0---0---0---0---0---0----|
    *   *   *   *   *   *   *     *   *   *   *   *   *   *
D|--------------------------------------------|
A|--------------------------------------------|
F|--------------------------------------------|
C|--------------------------------------------|
G|--5---3---5---8---7---5---8-88-888-1-11-111-|
C|0---0---0---0---0---0---0-8-88-888-1-11-111-|
  *   *   *   *   *   *   *
D|-------------------------------|-----------------------------|
A|-------------------------------|-----------------------------|
F|-------------------------------|-----------------------------|
C|----------------------------7--|--------------------------5--|
G|0---5---3---5---8---7---5---5--|--5---3---5---8---7---5---3--|
C|0-0---0---0---0---0---0---0----|0---0---0---0---0---0---0----|
    *   *   *   *   *   *   *     *   *   *   *   *   *   *
D|--------------------------------------------|
A|--------------------------------------------|
F|--------------------------------------------|
C|--------------------------------------------|
G|--5---3---5---8---7---5---8-88-888-5-55-555-|
C|0---0---0---0---0---0---0-8-88-888-5-55-555-|
  *   *   *   *   *   *   *
PRE-CHORUS
D|--------------------------------------------------------------|
A|--------------------------------------------------------------|
F|--------------------------------------------------------------|
C|--------------------------------------------------------------|
G|0-----8-----3-----------/5-----0-----8-----3-----------/5-----|
C|0-----8-----3-----2-----/5-----0-----8-----3-----2-----/5-----|

CHORUS
D|-------------------------------------------------------------------|
A|-------------------------------------------------------------------|
F|-------------------------------------------------------------------|
C|-------------------------------------------------------------------|
G|3333333333-5555555555----555----5----5---6------555----5----5---3--|
C|3333333333-5555555555-00-----00---00---0----00------00---00---0----|
                        **     **   **   *    **      **   **   *
D|-------------------------------------------------------------------|
A|-------------------------------------------------------------------|
F|-------------------------------------------------------------------|
C|-------------------------------------------------------------------|
G|1010101010-8888888888----555----5----5---6------555----5----5---3--|
C|1010101010-8888888888-00-----00---00---0----00------00---00---0----|
                        **     **   **   *    **      **   **   *
D|-------------------------------------------------------------------|
A|-------------------------------------------------------------------|
F|-------------------------------------------------------------------|
C|-------------------------------------------------------------------|
G|3333333333-5555555555----555----5----5---6------555----5----5---3--|
C|3333333333-5555555555-00-----00---00---0----00------00---00---0----|
                        **     **   **   *    **      **   **   *
D|-------------------------------------------------------------------|
A|-------------------------------------------------------------------|
F|-------------------------------------------------------------------|
C|-------------------------------------------------------------------|
G|1010101010-8888888888----555----5----5---6------555----5----5---3--|
C|1010101010-8888888888-00-----00---00---0----00------00---00---0----|
                        **     **   **   *    **      **   **   *

Key
/ = Slide
* = Palm Mute

sexpistols31@yahoo.com
myspace.com/373406646


comments
We did not receive enough feedback on this tab! Please rate:
print report bad tab
1 2 3 4 5
I want to post or [tab]
guest
You may want to rate the tab now too:
select rating
Please do not post tabs as comments. Select "correction" instead!