Oops, an error
Loading. Please wait.

Amerika Tab

37 views 9 this week
no commentswrite comment
1 2 3 4 5
3 more votes to show rating
add to favorites
launch autoscroll
font size
0
reset
how to read this tab
guitar tuner
Autoscroll
slow
fast
+/-
esc
set tempo
stop
Help us to improve Ultimate-Guitar.com Take our survey!
×
Author
-------------------------------------------------------------------------------
                             AMERIKA - Wintersleep
-------------------------------------------------------------------------------
Tab by: Ian Wark

Tuning: Standard

I hear 3 guitars.


[Intro]
GUITARS 1&2
e|---------------------------------------------------------------------------|
B|---------------------------------------------------------------------------|
G|----------------2-2-2-2--------2-2-2-2-------------------------------------| x2
D|-2-2-2-2--------2-2-2-2--------2-2-2-2--------2-2-2-2----------------------|
A|-2-2-2-2--------0-0-0-0--------0-0-0-0--------2-2-2-2----------------------|
E|-0-0-0-0--------------------------------------0-0-0-0----------------------|

GUITAR 3
Tremolo

e|---------------------------------------------------------------------------|
B|-------17-----16-----14--------------14---12-------------------------------|
G|---------------------------------------------------------------------------|
D|---------------------------------------------------------------------------|
A|---------------------------------------------------------------------------|
E|---------------------------------------------------------------------------|

e|---------------------------------------------------------------------------|
B|-------17-----16-----14------10------14---12-------------------------------|
G|---------------------------------------------------------------------------|
D|---------------------------------------------------------------------------|
A|---------------------------------------------------------------------------|
E|---------------------------------------------------------------------------|



[Verse 1]
0:18

GUITARS 1&2
e|---------------------------------------------------------------------------|
B|---------------------------------------------------------------------------|
G|----------------2-2-2-2--------2-2-2-2-------------------------------------| x3
D|-2-2-2-2--------2-2-2-2--------2-2-2-2--------2-2-2-2----------------------|
A|-2-2-2-2--------0-0-0-0--------0-0-0-0--------2-2-2-2----------------------|
E|-0-0-0-0--------------------------------------0-0-0-0----------------------|

e|---------------------------------------------------------------------------|
B|---------------------------------------------------------------------------|
G|----------------2-2-2-2--------2-2-2-2--------2-2-2-2----------------------| 
D|-2-2-2-2--------2-2-2-2--------2-2-2-2--------2-2-2-2----------------------|
A|-2-2-2-2--------0-0-0-0--------0-0-0-0--------0-0-0-0----------------------|
E|-0-0-0-0-------------------------------------------------------------------|



[Chorus 1]
0:43

GUITARS 1&2
e|-0-0-0-0-0------0-0-0-0-0------0-0-0-0-0------0-0-0-0-0--------------------|
B|-0-0-0-0-0------2-2-2-2-2------2-2-2-2-2------0-0-0-0-0--------------------|
G|-1-1-1-1-1------2-2-2-2-2------2-2-2-2-2------1-1-1-1-1--------------------| x3
D|-2-2-2-2-2------2-2-2-2-2------2-2-2-2-2------2-2-2-2-2--------------------|
A|-2-2-2-2-2------0-0-0-0-0------0-0-0-0-0------2-2-2-2-2--------------------|
E|-0-0-0-0-0------0-0-0-0-0------0-0-0-0-0------0-0-0-0-0--------------------|


e|-0-0-0-0-0------0-0-0-0-0------0-0-0-0-0------0----------------------------|
B|-0-0-0-0-0------2-2-2-2-2------2-2-2-2-2------0----------------------------|
G|-1-1-1-1-1------2-2-2-2-2------2-2-2-2-2------1----------------------------| 
D|-2-2-2-2-2------2-2-2-2-2------2-2-2-2-2------2----------------------------|
A|-2-2-2-2-2------0-0-0-0-0------0-0-0-0-0------2----------------------------|
E|-0-0-0-0-0------0-0-0-0-0------0-0-0-0-0------0----------------------------|



[Post-Chorus]
1:21

GUITARS 1&2
e|---------------------------------------------------------------------------|
B|---------------------------------------------------------------------------|
G|----------------2-2-2-2--------2-2-2-2-------------------------------------| 
D|-2-2-2-2--------2-2-2-2--------2-2-2-2--------2-2-2-2----------------------|
A|-2-2-2-2--------0-0-0-0--------0-0-0-0--------2-2-2-2----------------------|
E|-0-0-0-0--------------------------------------0-0-0-0----------------------|

e|---------------------------------------------------------------------------|
B|---------------------------------------------------------------------------|
G|----------------2-2-2-2--------2-2-2-2-------------------------------------| 
D|-2-2-2-2--------2-2-2-2--------2-2-2-2--------2-2-2-2--------2-2-----------|
A|-2-2-2-2--------0-0-0-0--------0-0-0-0--------2-2-2-2--------2-2-----------|
E|-0-0-0-0--------------------------------------0-0-0-0--------0-0-----------|

GUITAR 3
Tremolo

e|---------------------------------------------------------------------------|
B|--------17-----16-----14--------------14---12------------------------------|
G|---------------------------------------------------------------------------|
D|---------------------------------------------------------------------------|
A|---------------------------------------------------------------------------|
E|---------------------------------------------------------------------------|

e|---------------------------------------------------------------------------|
B|--------17-----16-----14------10------14---12------------------------------|
G|---------------------------------------------------------------------------|
D|---------------------------------------------------------------------------|
A|---------------------------------------------------------------------------|
E|---------------------------------------------------------------------------|



[Verse 2]
1:35

GUITAR 1
e|---------------------------------------------------------------------------|
B|---------------------------------------------------------------------------|
G|----------------2-2-2-2--------2-2-2-2-------------------------------------| 
D|----------------2-2-2-2--------2-2-2-2--------2-2-2-2----------------------|
A|----------------0-0-0-0--------0-0-0-0--------2-2-2-2----------------------|
E|----------------------------------------------0-0-0-0----------------------|

e|---------------------------------------------------------------------------|
B|---------------------------------------------------------------------------|
G|----------------2-2-2-2--------2-2-2-2-------------------------------------| x2
D|-2-2-2-2--------2-2-2-2--------2-2-2-2--------2-2-2-2----------------------|
A|-2-2-2-2--------0-0-0-0--------0-0-0-0--------2-2-2-2----------------------|
E|-0-0-0-0--------------------------------------0-0-0-0----------------------|

e|---------------------------------------------------------------------------|
B|---------------------------------------------------------------------------|
G|----------------2-2-2-2--------2-2-2-2--------2-2-2-2----------------------| 
D|-2-2-2-2--------2-2-2-2--------2-2-2-2--------2-2-2-2----------------------|
A|-2-2-2-2--------0-0-0-0--------0-0-0-0--------0-0-0-0----------------------|
E|-0-0-0-0-------------------------------------------------------------------|

GUITAR 2
e|---------------------------------------------------------------------------|
B|----------------2-2-2-2--------2-2-2-2--------9-9-9-9-10-9-10-9------------|
G|----------------2-2-2-2--------2-2-2-2--------9-9-9-9-9--9-9--9------------| 
D|----------------2-2-2-2--------2-2-2-2--------9-9-9-9-9--9-9--9------------|
A|---------------------------------------------------------------------------|
E|---------------------------------------------------------------------------|

e|---------------------------------------------------------------------------|
B|-9-9-9-9--------2-2-2-2--------2-2-2-2--------9-9-9-9-10-9-10-9------------|
G|-9-9-9-9--------2-2-2-2--------2-2-2-2--------9-9-9-9-9--9-9--9------------| x2
D|-9-9-9-9--------2-2-2-2--------2-2-2-2--------9-9-9-9-9--9-9--9------------|
A|---------------------------------------------------------------------------|
E|---------------------------------------------------------------------------|

e|---------------------------------------------------------------------------|
B|-9-9-9-9--------2-2-2-2--------2-2-2-2--------2-2-2-2----------------------|
G|-9-9-9-9--------2-2-2-2--------2-2-2-2--------2-2-2-2----------------------| 
D|-9-9-9-9--------2-2-2-2--------2-2-2-2--------2-2-2-2----------------------|
A|---------------------------------------------------------------------------|
E|---------------------------------------------------------------------------|



[Chorus 2]
2:01

GUITAR 1
e|-0-0-0-0-0------0-0-0-0-0------0-0-0-0-0------0-0-0-0-0--------------------|
B|-0-0-0-0-0------2-2-2-2-2------2-2-2-2-2------0-0-0-0-0--------------------|
G|-1-1-1-1-1------2-2-2-2-2------2-2-2-2-2------1-1-1-1-1--------------------| x7
D|-2-2-2-2-2------2-2-2-2-2------2-2-2-2-2------2-2-2-2-2--------------------|
A|-2-2-2-2-2------0-0-0-0-0------0-0-0-0-0------2-2-2-2-2--------------------|
E|-0-0-0-0-0------0-0-0-0-0------0-0-0-0-0------0-0-0-0-0--------------------|


e|-0-0-0-0-0------0-0-0-0-0------0-0-0-0-0------0-0-0-0----------------------|
B|-0-0-0-0-0------2-2-2-2-2------2-2-2-2-2------0-0-0-0----------------------|
G|-1-1-1-1-1------2-2-2-2-2------2-2-2-2-2------2-2-2-2----------------------| 
D|-2-2-2-2-2------2-2-2-2-2------2-2-2-2-2------2-2-2-2----------------------|
A|-2-2-2-2-2------0-0-0-0-0------0-0-0-0-0------2-2-2-2----------------------|
E|-0-0-0-0-0------0-0-0-0-0------0-0-0-0-0------0-0-0-0----------------------|

GUITAR 2
e|-0-0-0-0-0------0-0-0-0-0------0-0-0-0-0------0-0-0-0-0--------------------|
B|-0-0-0-0-0------2-2-2-2-2------2-2-2-2-2------0-0-0-0-0--------------------|
G|-1-1-1-1-1------2-2-2-2-2------2-2-2-2-2------1-1-1-1-1--------------------| x5
D|-2-2-2-2-2------2-2-2-2-2------2-2-2-2-2------2-2-2-2-2--------------------|
A|-2-2-2-2-2------0-0-0-0-0------0-0-0-0-0------2-2-2-2-2--------------------|
E|-0-0-0-0-0------0-0-0-0-0------0-0-0-0-0------0-0-0-0-0--------------------|

e|-7-7-7-7-7------0-0-0-0-0------0-0-0-0-0------7-7-7-7-7--7-7--7------------|
B|-9-9-9-9-9------2-2-2-2-2------2-2-2-2-2------9-9-9-9-10-9-10-9------------|
G|-9-9-9-9-9------2-2-2-2-2------2-2-2-2-2------9-9-9-9-9--9-9--9------------| x2
D|-9-9-9-9-9------2-2-2-2-2------2-2-2-2-2------9-9-9-9-9--9-9--9------------|
A|-7-7-7-7-7------0-0-0-0-0------0-0-0-0-0------7-7-7-7-7--7-7--7------------|
E|----------------0-0-0-0-0------0-0-0-0-0-----------------------------------|

e|-0-0-0-0-0------0-0-0-0-0------0-0-0-0-0------0-0-0-0----------------------|
B|-0-0-0-0-0------2-2-2-2-2------2-2-2-2-2------0-0-0-0----------------------|
G|-1-1-1-1-1------2-2-2-2-2------2-2-2-2-2------2-2-2-2----------------------| 
D|-2-2-2-2-2------2-2-2-2-2------2-2-2-2-2------2-2-2-2----------------------|
A|-2-2-2-2-2------0-0-0-0-0------0-0-0-0-0------2-2-2-2----------------------|
E|-0-0-0-0-0------0-0-0-0-0------0-0-0-0-0------0-0-0-0----------------------|



[Outro]
2:46
Long-ish break with feedback

GUITAR 1
2:55
"...Die..."
e|-0-0-0-0--------0-0-0-0--------0-0-0-0--------0-0-0-0----------------------|
B|-0-0-0-0--------2-2-2-2--------2-2-2-2--------0-0-0-0----------------------|
G|-1-1-1-1--------2-2-2-2--------2-2-2-2--------1-1-1-1----------------------| x2
D|-2-2-2-2--------2-2-2-2--------2-2-2-2--------2-2-2-2----------------------|
A|-2-2-2-2--------0-0-0-0--------0-0-0-0--------2-2-2-2----------------------|
E|-0-0-0-0--------0-0-0-0--------0-0-0-0--------0-0-0-0----------------------|

rest 1 then

3:10
e|-0-0-0-0--------0-0-0-0--------0-0-0-0--------0-0-0-0----------------------|
B|-0-0-0-0--------2-2-2-2--------2-2-2-2--------0-0-0-0----------------------|
G|-1-1-1-1--------2-2-2-2--------2-2-2-2--------1-1-1-1----------------------| x4
D|-2-2-2-2--------2-2-2-2--------2-2-2-2--------2-2-2-2----------------------|
A|-2-2-2-2--------0-0-0-0--------0-0-0-0--------2-2-2-2----------------------|
E|-0-0-0-0--------0-0-0-0--------0-0-0-0--------0-0-0-0----------------------|

GUITAR 2
2:55
"...Die..."
e|-0-0-0-0--------0-0-0-0--------0-0-0-0--------7-7-7-7-7--7-7--7------------|
B|-0-0-0-0--------2-2-2-2--------2-2-2-2--------9-9-9-9-10-9-10-9------------|
G|-1-1-1-1--------2-2-2-2--------2-2-2-2--------9-9-9-9-9--9-9--9------------|
D|-2-2-2-2--------2-2-2-2--------2-2-2-2--------9-9-9-9-9--9-9--9------------|
A|-2-2-2-2--------0-0-0-0--------0-0-0-0--------7-7-7-7-7--7-7--7------------|
E|-0-0-0-0--------0-0-0-0--------0-0-0-0-------------------------------------|

e|-7-7-7-7--------0-0-0-0--------0-0-0-0--------0-0-0-0-0-0------------------|
B|-9-9-9-9--------2-2-2-2--------2-2-2-2--------0-0-0-0-0-0------------------|
G|-9-9-9-9--------2-2-2-2--------2-2-2-2--------1-1-1-1-1-1------------------|
D|-9-9-9-9--------2-2-2-2--------2-2-2-2--------2-2-2-2-2-2------------------|
A|-7-7-7-7--------0-0-0-0--------0-0-0-0--------2-2-2-2-2-2------------------|
E|----------------0-0-0-0--------0-0-0-0--------0-0-0-0-0-0------------------|

rest 1

3:10
e|-0-0-0-0--------0-0-0-0--------0-0-0-0--------7-7-7-7-7--7-7--7------------|
B|-0-0-0-0--------2-2-2-2--------2-2-2-2--------9-9-9-9-10-9-10-9------------|
G|-1-1-1-1--------2-2-2-2--------2-2-2-2--------9-9-9-9-9--9-9--9------------|
D|-2-2-2-2--------2-2-2-2--------2-2-2-2--------9-9-9-9-9--9-9--9------------|
A|-2-2-2-2--------0-0-0-0--------0-0-0-0--------7-7-7-7-7--7-7--7------------|
E|-0-0-0-0--------0-0-0-0--------0-0-0-0-------------------------------------|

e|-7-7-7-7--------0-0-0-0--------0-0-0-0--------7-7-7-7-7--7-7--7------------|
B|-9-9-9-9--------2-2-2-2--------2-2-2-2--------9-9-9-9-10-9-10-9------------|
G|-9-9-9-9--------2-2-2-2--------2-2-2-2--------9-9-9-9-9--9-9--9------------| x2
D|-9-9-9-9--------2-2-2-2--------2-2-2-2--------9-9-9-9-9--9-9--9------------|
A|-7-7-7-7--------0-0-0-0--------0-0-0-0--------7-7-7-7-7--7-7--7------------|
E|----------------0-0-0-0--------0-0-0-0-------------------------------------|

e|-7-7-7-7--------0-0-0-0--------0-0-0-0--------0-0-0-0-0-0------------------|
B|-9-9-9-9--------2-2-2-2--------2-2-2-2--------0-0-0-0-0-0------------------|
G|-9-9-9-9--------2-2-2-2--------2-2-2-2--------1-1-1-1-1-1------------------|
D|-9-9-9-9--------2-2-2-2--------2-2-2-2--------2-2-2-2-2-2------------------|
A|-7-7-7-7--------0-0-0-0--------0-0-0-0--------2-2-2-2-2-2------------------|
E|----------------0-0-0-0--------0-0-0-0--------0-0-0-0-0-0------------------|

GUITAR 3
At approximately 2:55 there is a single note that is sustained until 3:10 
(around 2 repeats of guitar 1's outro)
e|---------------------------------------------------------------------------|
B|---------------------------------------------------------------------------|
G|-13------------------------------------------------------------------------|
D|---------------------------------------------------------------------------|
A|---------------------------------------------------------------------------|
E|---------------------------------------------------------------------------|

3:10
Repeat Intro/Post-chorus again twice this time
Tremolo

e|---------------------------------------------------------------------------|
B|--------17-----16-----14--------------14---12------------------------------|
G|---------------------------------------------------------------------------|
D|---------------------------------------------------------------------------|
A|---------------------------------------------------------------------------|
E|---------------------------------------------------------------------------|

e|---------------------------------------------------------------------------|
B|--------17-----16-----14------10------14---12------------------------------|
G|---------------------------------------------------------------------------|
D|---------------------------------------------------------------------------|
A|---------------------------------------------------------------------------|
E|---------------------------------------------------------------------------|
Suggest correction
Give kudos to tab author, rate the tab!
1 2 3 4 5
comments
print report bad tab
guest
You may want to rate the tab now too:
select rating
Wanna post a correction for this tab? Suggest correction