Oops, an error
Loading. Please wait.

Home tab

version 1
version 1

Whole song

3,825 views 1 this week
1 commentread comment
1 2 3 4 5
x 3
add to favorites
×
Save as Personal and add changes to this tab that will be seen only by you. Learn more ›
×
You can save this tab as Personal to edit and correct it or add notes. All changes will be seen only by you. Learn more »
launch autoscroll
font size
0
reset
how to read this tab
guitar tuner
edit
Autoscroll
slow
fast
+/-
esc
set tempo
stop
Author
-------------------------------------------------------------------------------
                             Home - Wintersleep
-------------------------------------------------------------------------------
Tabbed by: Jordan Reimer        
Email: i_ridebmx@hotmail.com

This is a great song and it's not overly difficult once you get the phrasing
and timing down. I use a pick for this one but it's up to you. The first 
example is the most basic structure of the song. In the second i added a 
couple extra notes from the C string and some annunciations that make it 
sound more complete when moving through the 4 shifts. Hope this helps!
 
Tuning: Tune Low E to C

Basic Structure
e|---------------------------------------------------------------------|
B|------------0--0-----------------------------------------0-----------|
G|------------1--0--0---------0-----------9----------------------------|
D|---------2---------------9---------9h10----10--9-\-5---5-------------|
A|------3--------------------------------------------------------------|
C|---0----------------7--7---------9-------------------4---------------|


Now Add Some Notes
e|---------------------------------------------------------------------|
B|------------0--0------------------------(0)----------------0---------|
G|------------1--0--0---------0------------9---------------------------|
D|---------2---------------9---------9h10--10--10---9-\-5--5-----------|
A|------3--------------------------------------------------------------|
C|---0----------------7--7---------9---------9----9------4-------------|



so glad to be back home
be back home
so glad to be back home
be back home
i cant stay to long
be back home
so glad to be back home
be back home

the winter hit so hard
hit so hard
the winter hit so hard
hit so hard
every little part
hit so hard

so glad to be back home
be back home

| /  slide up
| \  slide down
| h  hammer-on
| p  pull-off
| ~  vibrato
| +  harmonic
| x  Mute note
===============================================================================

            
            
Suggest correction
Creating personal tab
Creating personal tab
You can edit any tab online and save it as your Personal.

You can edit, replace or remove any tab part or add personal notes – all changes will be seen only by you.

Personal tabs can be accessed anytime from any device, even offline.
Learn more »
Give kudos to tab author, rate the tab!
1 2 3 4 5
comments
print report bad tab
1 comment total.
0 reply
mhmd.tarek 20 May 13, 2014 05:03 PM

Great tab, thanks for posting!

Also, just noting that I think the

B|-0-
G|-1-

should be a

B|-1-
G|-0-

guest
You may want to rate the tab now too:
select rating
Wanna post a correction for this tab? Suggest correction