Oops, an error
Loading. Please wait.

Insomnia tab

version 2
version 2

Whole song

1,935 views 1 this week
2 commentsread comments
1 2 3 4 5
1 last vote to show rating
add to favorites
×
Save as Personal and add changes to this tab that will be seen only by you. Learn more ›
×
You can save this tab as Personal to edit and correct it or add notes. All changes will be seen only by you. Learn more »
launch autoscroll
font size
0
reset
how to read this tab
guitar tuner
edit
Autoscroll
slow
fast
+/-
esc
set tempo
stop
Author
Tuning: CADGBe

Intro/Verse

|---------------------------------------|
|-----0---------------------------------|
|-0-------2---2---2-----------------2---|
|---0---0---0---0---0-0/2/4/5\4\2\0---0-|
|---------------------------------------|
|-4---2---0-------------------------0---|

|-------------------------------------|   
|-----------------------0-------------|
|-0---4---4---2---2---2---2---2---2---|
|---0---2---2---0---0-------0---0---0-|
|-------------------------------------|
|-2---4-------2-----------------------|

(Repeat above 4 times but end changes to this on fourth repetition:)

|-------------------------------------|
|-------------------------------------|
|-0---4---4---2---2---0---0-----------|
|---0---2---2---0---0---0---0-4-------|
|-------------------------------------|
|-2---4-------2-----------------------|

(Repeat this pattern throughout the song for the verse.)

And I will not grow tired
of crayon stars and fire
The sunlight has punctured tiny holes
of light

(I think this is how the rest of it goes.)

 8x 8x 16x 8x 8x 8x 8x
|---------------------|
|---------------------|
|-0--0--0--4--6--4--0-|
|-2--4--2--5--7--5--4-|
|-2--0--2--5--7--5--0-|
|-4--2--4--7--9--7--2-|

I closed my eyes
I held my breath
I prayed for light
and gasped for oxygen
It wasn't there

I couldn't see 
to scare the shadow out of me
I couldn't sleep

(End with the intro/verse picking.)
Suggest correction
Creating personal tab
Creating personal tab
You can edit any tab online and save it as your Personal.

You can edit, replace or remove any tab part or add personal notes – all changes will be seen only by you.

Personal tabs can be accessed anytime from any device, even offline.
Learn more »
Give kudos to tab author, rate the tab!
1 2 3 4 5
comments
print report bad tab
2 comments total.
0 reply
COM.III 41 Aug 19, 2009 11:47 AM

i just want to change part of the tab. This sounds better to me:

8x 8x 24x 8x 8x 8x
|-----------------------|
|-----------------------|
|-0---0---0---6---4---0-|
|-2---4---2---7---5---4-|
|-2---0---2---7---5---0-|
|-4---2---4---9---7---2-|

I closed my eyes
I held my breath
I prayed for light
and gasped for oxygen
It wasn't there

(Change to this for the next part and let the final chord ring out)

8x 8x 24x 8x 8x 8x 1x
|---------------------------|
|---------------------------|
|-0---0---0---6---8---0---0-|
|-2---4---2---7---9---4---2-|
|-2---0---2---7---9---4---2-|
|-4---2---4---9---11--6---4-|

I couldn't see
I prayed for light to scare the shadow out of me
I couldn't sleep

0 reply
PaulFrazer 27 Aug 19, 2009 12:08 PM

At "I closed my eyes", right on "eyes"(2:29)it changes to this on top of what you already have there.

e|3-------3-------2-------2-------- x1
b|--5---5---5---5---3---3---3---3--
g|----4-------4-------2-------2----
d|---------------------------------
a|---------------------------------
c|---------------------------------

e|3-------3-------3-------3-------3-------3-------2-------2-------
b|--5---5---5---5---5---5---5---5---5---5---5---5---3---3---3---3-
g|----4-------4-------4-------4-------4-------4-------2-------2---
d|----------------------------------------------------------------
a|----------------------------------------------------------------
c|----------------------------------------------------------------

then i can't really hear the next part but it continues on with
e|3-------3-------
b|--5---5---5---5-
g|----4-------4---
d|----------------
a|----------------
c|---------------- for a long while.

guest
You may want to rate the tab now too:
select rating
Wanna post a correction for this tab? Suggest correction