Oops, an error
Loading. Please wait.

Against The Wall Tab

by Wipers
365 views 1 this week
no commentswrite comment
1 2 3 4 5
3 more votes to show rating
add to favorites
×
Save as Personal and add changes to this tab that will be seen only by you. Learn more ›
×
You can save this tab as Personal to edit and correct it or add notes. All changes will be seen only by you. Learn more »
save as personal
new!
launch autoscroll
font size
0
reset
how to read this tab
guitar tuner
Autoscroll
slow
fast
+/-
esc
set tempo
stop
Against The Wall
Wipers
Follow Blind, 1987

Intro:
E---------------------------------------------------------------
B---------------------------------------------------------------
G---------------------------------------------------------------
D--x-x---x--x---9-8----7-6-5----3-0---------9-8----7-6-5--------
A--x-x---x--x---9-8----7-6-5----3-0--5-3----9-8----7-6-5---X-X--
E------------------------------------5-3-------------------X-X--

E---------------------------------------|
B---------------------------------------|
G--9--9--9----7---7-7---9-9---7---7-7---|
D--9--9--9----7---7-7---9-9---7---7-7---|
A--7--7--7----5---5-5---7-7---5---5-5---|
E---------------------------------------|

Riff A:
E--------------------------------------------------------------------------
B--------------------------------------------------------------------------
G-----------------------------------------------9--7---7-7---9--9--7-7--9--
D--9-8--7-6-----------9-8--7-6------------------9--7---7-7---9--9--7-7--9--
A--9-8--7-6--8-7-6----9-8--7-6--8-7-6----X-X----7--5---5-5---7--7--5-5--7--
E------------8-7-6--------------8-7-6----X-X-------------------------------


Verse:
E----------------------------------------------
B----------------------------------------------
G------------9--x-x--9--x-x--9--x-x--7--x-x-x--
D--x-x-------9--x-x--9--x-x--9--x-x--7--x-x-x--
A--x-x-------7--x-x--7--x-x--7--x-x--5--x-x-x--
E--x-x-----------------------------------------
Just livin...

E-------------------------------------------------------
B-------------------------------------------------------
G---------------------9--x-x--9--x-x--9--x-x--7--x-x-x--
D-----------x-x-------9--x-x--9--x-x--9--x-x--7--x-x-x--
A-----------x-x-------7--x-x--7--x-x--7--x-x--5--x-x-x--
E-----------x-x-----------------------------------------
Day to day...

E----------------------------------------------
B----------------------------------------------
G------------9--x-x--9--x-x--9--x-x--7--x-x-x--
D--x-x-------9--x-x--9--x-x--9--x-x--7--x-x-x--
A--x-x-------7--x-x--7--x-x--7--x-x--5--x-x-x--
E--x-x-----------------------------------------
Oh come on, just say it...

E--------------------------------------------
B--------------------------------------------
G----------9--x-x--9--x-x--9--x-x--7--x-x-x--
D--x-x-----9--x-x--9--x-x--9--x-x--7--x-x-x--
A--x-x-----7--x-x--7--x-x--7--x-x--5--x-x-x--
E--x-x---------------------------------------
Say it's just a game

E----------------------------------------------
B----------------------------------------------
G------------9--x-x--9--x-x--9--x-x--7--x-x-x--
D--x-x-------9--x-x--9--x-x--9--x-x--7--x-x-x--
A--x-x-------7--x-x--7--x-x--7--x-x--5--x-x-x--
E--x-x-----------------------------------------
You can move so freely inside your halls

E---------------------------------------------------
B---------------------------------------------------
G--0/2-2-2-2/4-4-4-4-4/5-5-5-5-5/6-6-6-6-6/7-7-7-7--
D--0/2-2-2-2/4-4-4-4-4/5-5-5-5-5/6-6-6-6-6/7-7-7-7--
A---------------------------------------------------
E---------------------------------------------------
But you're framed so crooked against the wall...

E---------------------------------------------------
B---------------------------------------------------
G--9-7-9-7-9-9-9-9-7--------------------------------
D--9-7-9-7-9-9-9-9-7---9-8-7-6-5-3-0--9-8-7-6-5-3-0-
A--7-5-7-5-7-7-7-7-5---9-8-7-6-5-3-0--9-8-7-6-5-3-0-
E---------------------------------------------------
(wall.........) Yeah...
Suggest correction
Give kudos to tab author, rate the tab!
1 2 3 4 5
comments
print report bad tab
guest
You may want to rate the tab now too:
select rating
Wanna post a correction for this tab? Suggest correction