Oops, an error
Loading. Please wait.

Different Ways tab

by Wipers
115 views 1 this week
no commentswrite comment
1 2 3 4 5
3 more votes to show rating
add to favorites
×
Save as Personal and add changes to this tab that will be seen only by you. Learn more ›
×
You can save this tab as Personal to edit and correct it or add notes. All changes will be seen only by you. Learn more »
launch autoscroll
font size
0
reset
how to read this tab
guitar tuner
edit
Autoscroll
slow
fast
+/-
esc
set tempo
stop
Author
Hi everybody! today i published my cover "different ways "
from the incredible punkband : Wipers!

I don't have lyrics, if someone can published that? it will make me happy!

Thank you for your interest, don't forget to rate me and comment ;)

* = palm mute

Intro:

e|10*10*10-10-11--10--8----5*5*5-5--6--5--3----|
b|10*10*10-10-11--10--8----5*5*5-5--6--5--3----|
g|10*10*10-10-11--10--8----5*5*5-5--6--5--3----| repeat X4
d|---------------------------------------------|
a|---------------------------------------------|
e|---------------------------------------------|

e|3-3-3---3-3-3---3-3-3---3-3-3--------|
b|4-4-4---4-4-4---4-4-4---4-4-4--------|
g|5-5-5---5-5-5---5-5-5---5-5-5--------|
d|5-5-5---5-5-5---5-5-5---5-5-5--------|
a|-------------------------------------|
e|-------------------------------------|

e|3-3/2----2/3--------------------------|
b|4-4/3----3/4--------------------------|
g|5-5/4----4/5--------------------------| repeat X2
d|5-5/4----4/5--------------------------|
a|--------------------------------------|
e|--------------------------------------|

Verses:

there's some out of town, there's all around

e|3-3/2----2/3--------------------------|
b|4-4/3----3/4--------------------------|
g|5-5/4----4/5--------------------------| 
d|5-5/4----4/5--------------------------|
a|--------------------------------------|
e|--------------------------------------|

it magnetized through endless eyes

e|3-3/2----2/3--------------------------|
b|4-4/3----3/4--------------------------|
g|5-5/4----4/5--------------------------| 
d|5-5/4----4/5--------------------------|
a|--------------------------------------|
e|--------------------------------------|
but dont forget where you're at

e|3-3/2----2/3--------------------------|
b|4-4/3----3/4--------------------------|
g|5-5/4----4/5--------------------------| 
d|5-5/4----4/5--------------------------|
a|--------------------------------------|
e|--------------------------------------|

you're still around and almost found

e|3-3/2----2/3--------------------------|
b|4-4/3----3/4--------------------------|
g|5-5/4----4/5--------------------------| 
d|5-5/4----4/5--------------------------|
a|--------------------------------------|
e|--------------------------------------|


Chorus:

e|-2/3---------------------------------|
b|-3/4---------------------------------|
g|-4/5---------------------------------|  repeat X2
d|-4/5---------------------------------|
a|-------------------------------------|
e|-------------------------------------|

there's different ways

Outro:

e|-------------------------------------|
b|8-8-8h9p8------3-3-3h4p3-------------|
g|-------------------------------------| 
d|-------------------------------------|
a|-------------------------------------|
e|-------------------------------------|


e|3-3/2----2/3--------------------------|
b|4-4/3----3/4--------------------------|
g|5-5/4----4/5--------------------------| 
d|5-5/4----4/5--------------------------|
a|--------------------------------------|
e|--------------------------------------|

e|-------------------------------------|
b|8-8-8h9p8------3-3-3h4p3-------------|
g|-------------------------------------| 
d|-------------------------------------|
a|-------------------------------------|
e|-------------------------------------|


e|3-3/2----2/3--------------------------|
b|4-4/3----3/4--------------------------|
g|5-5/4----4/5--------------------------| 
d|5-5/4----4/5--------------------------|
a|--------------------------------------|
e|--------------------------------------|


Chorus:

e|-2/3---------------------------------|
b|-3/4---------------------------------|
g|-4/5---------------------------------|  repeat X2
d|-4/5---------------------------------|
a|-------------------------------------|
e|-------------------------------------|

there's different ways

Verses:

e|3-3/2----2/3--------------------------|
b|4-4/3----3/4--------------------------|
g|5-5/4----4/5--------------------------|  
d|5-5/4----4/5--------------------------|
a|--------------------------------------|
e|--------------------------------------|

all around paraded clowns


e|3-3/2----2/3--------------------------|
b|4-4/3----3/4--------------------------|
g|5-5/4----4/5--------------------------|  
d|5-5/4----4/5--------------------------|
a|--------------------------------------|
e|--------------------------------------|

can you survive the ????


e|3-3/2----2/3--------------------------|
b|4-4/3----3/4--------------------------|
g|5-5/4----4/5--------------------------|  
d|5-5/4----4/5--------------------------|
a|--------------------------------------|
e|--------------------------------------|

i can't tell her what is for real


e|3-3/2----2/3--------------------------|
b|4-4/3----3/4--------------------------|
g|5-5/4----4/5--------------------------|  
d|5-5/4----4/5--------------------------|
a|--------------------------------------|
e|--------------------------------------|

never mind it's so far out


e|3-3/2----2/3--------------------------|
b|4-4/3----3/4--------------------------|
g|5-5/4----4/5--------------------------|  
d|5-5/4----4/5--------------------------|
a|--------------------------------------|
e|--------------------------------------|

Chorus:

e|-2/3---------------------------------|
b|-3/4---------------------------------|
g|-4/5---------------------------------|  repeat X4
d|-4/5---------------------------------|
a|-------------------------------------|
e|-------------------------------------|

there's different ways

Outro :

e|10*10*10--11--10--8----5*5*5----6--5--3------|
b|10*10*10--11--10--8----5*5*5----6--5--3------|
g|10*10*10--11--10--8----5*5*5----6--5--3------| repeat x2
d|---------------------------------------------|
a|---------------------------------------------|
e|---------------------------------------------|

e|15*15*15--16-15-13--10*10*10--11-10-8--------|
b|15*15*15--16-15-13--10*10*10--11-10-8--------|
g|15*15*15--16-15-13--10*10*10--11-10-8--------|  repeat X2
d|---------------------------------------------|
a|---------------------------------------------|
e|---------------------------------------------|

e|5*5*5--3*3*3----------|
b|6*6*6--4*4*4----------|
g|7*7*7--5*5*5----------| repeat X2
d|7*7*7--5*5*5----------|
a|----------------------|
e|----------------------|

e|3-3-3---3-3-3---3-3-3---3-3-3--------|
b|4-4-4---4-4-4---4-4-4---4-4-4--------|
g|5-5-5---5-5-5---5-5-5---5-5-5--------|
d|5-5-5---5-5-5---5-5-5---5-5-5--------|
a|-------------------------------------|
e|-------------------------------------|


Verses:

e|3-3/2----2/3--------------------------|
b|4-4/3----3/4--------------------------|
g|5-5/4----4/5--------------------------| 
d|5-5/4----4/5--------------------------|
a|--------------------------------------|
e|--------------------------------------|

so don't forget where you're at

e|3-3/2----2/3--------------------------|
b|4-4/3----3/4--------------------------|
g|5-5/4----4/5--------------------------| 
d|5-5/4----4/5--------------------------|
a|--------------------------------------|
e|--------------------------------------|

you're still around but almost found

Chorus:

e|-2/3---------------------------------|
b|-3/4---------------------------------|
g|-4/5---------------------------------|  repeat X4
d|-4/5---------------------------------|
a|-------------------------------------|
e|-------------------------------------|

there's different ways

End (repeat again and again...)

e|-------------------------------------|
b|8-8-8h9p8------3-3-3h4p3-------------|
g|-------------------------------------| 
d|-------------------------------------|
a|-------------------------------------|
e|-------------------------------------|


e|3-3/2----2/3--------------------------|
b|4-4/3----3/4--------------------------|
g|5-5/4----4/5--------------------------| 
d|5-5/4----4/5--------------------------|
a|--------------------------------------|
e|--------------------------------------|

e|-------------------------------------|
b|8-8-8h9p8------3-3-3h4p3-------------|
g|-------------------------------------| 
d|-------------------------------------|
a|-------------------------------------|
e|-------------------------------------|


e|3-3/2----2/3--------------------------|
b|4-4/3----3/4--------------------------|
g|5-5/4----4/5--------------------------| 
d|5-5/4----4/5--------------------------|
a|--------------------------------------|
e|--------------------------------------|


...




there's different ways, there's different ways, there's different ways
https://www.youtube.com/watch?v=8ifQ6XMiP-4

            
            
Suggest correction
Creating personal tab
Creating personal tab
You can edit any tab online and save it as your Personal.

You can edit, replace or remove any tab part or add personal notes – all changes will be seen only by you.

Personal tabs can be accessed anytime from any device, even offline.
Learn more »
Give kudos to tab author, rate the tab!
1 2 3 4 5
comments
print report bad tab
guest
You may want to rate the tab now too:
select rating
Wanna post a correction for this tab? Suggest correction