Oops, an error
Loading. Please wait.

No Fair tab

version 2
version 2

Whole song

by Wipers
274 views 9 this week
no commentswrite comment
1 2 3 4 5
3 more votes to show rating
add to favorites
×
Save as Personal and add changes to this tab that will be seen only by you. Learn more ›
×
You can save this tab as Personal to edit and correct it or add notes. All changes will be seen only by you. Learn more »
launch autoscroll
font size
0
reset
how to read this tab
guitar tuner
edit
Autoscroll
slow
fast
+/-
esc
set tempo
stop
Author
Difficulty
hi Folks,  today this is my cover from Wipers :No Fair!

more informations? need that i edit a other cover?: machine_sk8@hotmail.fr

don't forget to rate me please!and comments!tell me what do you think

enjoy !

*=palm mute
/= slide
~= bend

Intro: (play it in clean sound)

e|-----3------2-2---2-------2--2-2-2-2--------|
b|--3--3--3---3-3---3-------3--2-3-2-2--------|
g|4----4------4-4-4-4----4--4--4-4-4-4--------|
d|------------4-4---4-------4--4-4-4-4--------| repeat X 2
a|------------2-2---2-------2--2-3-3-2--------|
e|------------2-2---2--2----2--2-2-2-2--------|

e|-----3------0-0---0-------0--2-2-2-2---------|
b|--3--3--3---0-0---0-------0--2-3-2-2---------|
g|4----4------0-0-0-0----0--0--4-4-4-4---------|
d|------------2-2---2-------2--4-4-4-4---------|
a|------------2-2---2-------2--2-2-2-2---------|
e|------------0-0---0--0----0--2-2-2-2---------|

e|-----3------2-2---2-------2--2-2-2-2--------|
b|--3--3--3---3-3---3-------3--2-3-2-2--------|
g|4----4------4-4-4-4----4--4--4-4-4-4--------|
d|------------4-4---4-------4--4-4-4-4--------| repeat X 2
a|------------2-2---2-------2--2-3-3-2--------|
e|------------2-2---2--2----2--2-2-2-2--------|

e|-----3------2-2-0-0-------2--2-2-2-2---------|
b|--3--3--3---3-3-3-3-------3--2-3-2-2---------|
g|4----4------4-4-4-4----4--4--4-4-4-4---------|
d|------------4-4-4-4-------4--4-4-4-4---------| 
a|------------2-2-2-2-------2--2-2-2-2---------|
e|------------2-2-2-2--2----2--2-2-2-2---------|

e|-----3------0-0---0-------2--2-2-2-2---------|
b|--3--3--3---0-0---0-------3--3-3-3-3---------|
g|4----4------0-0-0-0----0--4--4-4-4-4---------|
d|------------2-2---2-------4--4-4-4-4---------|
a|------------2-2---2-------2--2-2-3-3---------|
e|------------0-0---0--0----2--2-2-3-3---------|

Out of the shadows...blistering lights... 

e|-----3------2-2---2-------2--2-2-2-2---------|
b|--3--3--3---3-3---3-------3--2-3-2-2---------|
g|4----4------4-4-4-4----4--4--4-4-4-4---------|
d|------------4-4---4-------4--4-4-4-4---------| 
a|------------2-2---2-------2--2-2-2-2---------|
e|------------2-2---2--2----2--2-2-2-2---------|

Through the hallways of a sleepless night... 


e|-----3------2-2---2-------2--2-2-2-2---------|
b|--3--3--3---3-3---3-------3--2-3-2-2---------|
g|4----4------4-4-4-4----4--4--4-4-4-4---------|
d|------------4-4---4-------4--4-4-4-4---------| 
a|------------2-2---2-------2--2-2-2-2---------|
e|------------2-2---2--2----2--2-2-2-2---------|

Every time I turn around, it's there...

e|-----3------2-2---2-------2--2-2-2-2---------|
b|--3--3--3---3-3---3-------3--2-3-2-2---------|
g|4----4------4-4-4-4----4--4--4-4-4-4---------|
d|------------4-4---4-------4--4-4-4-4---------| 
a|------------2-2---2-------2--2-2-2-2---------|
e|------------2-2---2--2----2--2-2-2-2---------|

Take a piece of our lives, didn't think we'd care?


e|-----3------0-0---0-------0--2-2-2-2---------|
b|--3--3--3---0-0---0-------0--2-3-2-2---------|
g|4----4------0-0-0-0----0--0--4-4-4-4---------|
d|------------2-2---2-------2--4-4-4-4---------|
a|------------2-2---2-------2--2-2-2-2---------|
e|------------0-0---0--0----0--2-2-2-2---------|

Take away...the chore...

e|-----3------2-2---2-------2--2-2-2-2---------|
b|--3--3--3---3-3---3-------3--2-3-2-2---------|
g|4----4------4-4-4-4----4--4--4-4-4-4---------|
d|------------4-4---4-------4--4-4-4-4---------| 
a|------------2-2---2-------2--2-2-2-2---------|
e|------------2-2---2--2----2--2-2-2-2---------|

Take all of that, and more...

e|-----3------2-2---2-------2--2-2-2-2---------|
b|--3--3--3---3-3---3-------3--2-3-2-2---------|
g|4----4------4-4-4-4----4--4--4-4-4-4---------|
d|------------4-4---4-------4--4-4-4-4---------| 
a|------------2-2---2-------2--2-2-2-2---------|
e|------------2-2---2--2----2--2-2-2-2---------|


e|-----3------2-2---2-------2--2-2-2-2---------|
b|--3--3--3---3-3---3-------3--2-3-2-2---------|
g|4----4------4-4-4-4----4--4--4-4-4-4---------|
d|------------4-4---4-------4--4-4-4-4---------| 
a|------------2-2---2-------2--2-2-2-2---------|
e|------------2-2---2--2----2--2-2-2-2---------|

And now we're crying...
It's no fair...


(then... let play the bass... and...)

Outro:

e|-------------------------------------|
b|-------------------------------------|
g|-------------------------------------|
d|9-9-9-9--12--5-----5--7---2----2--5--| repeat X2
a|9-9-9-9--12--5-----5--7---2----2--5--|
e|7-7-7-7--9---3-----3--5---0----0--3--|

e|------------------------------------------------|
b|------------------------------------------------|
g|11-11-11-12--12-12-11/7-9-9-9-7/4-4--4--4/7-7/9-|
d|------------------------------------------------|
a|------------------------------------------------|
e|------------------------------------------------|

e|-------------------------------------------------|
b|-------------------------------------------------|
g|9/11-11-11-12--12-12-11/7-9-9-9-7/4-4--4--4/7-7b-|
d|-------------------------------------------------|
a|-------------------------------------------------|
e|-------------------------------------------------|


Verses:

e|-------------------------------------|
b|-------------------------------------|
g|-------------------------------------|
d|9-9-9-9-9--5-5-5-5-5-----------------|
a|9-9-9-9-9--5-5-5-5-5-----------------|
e|7-7-7-7-7--3-3-3-3-3-----------------|

Through the shadows, blistering lights

e|-------------------------------------|
b|-------------------------------------|
g|-------------------------------------|
d|9-9-9-9-9--5-5-5-5-5-----------------|
a|9-9-9-9-9--5-5-5-5-5-----------------|
e|7-7-7-7-7--3-3-3-3-3-----------------|

As the dreams of your darkness died

e|--------------------------------------------|
b|--------------------------------------------|
g|--------------------------------------------|
d|2-2-2-2-2--5-5-5-5-5-5-5-5---7-7-7-7-7------|
a|2-2-2-2-2--5-5-5-5-5-5-5-5---7-7-7-7-7------|
e|0-0-0-0-0--3-3-3-3-3-3-3-3---5-5-5-5-5------|

Every time I turn around you're there...

e|-------------------------------------|
b|-------------------------------------|
g|-------------------------------------|
d|9-9-9-9-9--5-5-5-5-5-----------------|
a|9-9-9-9-9--5-5-5-5-5-----------------|
e|7-7-7-7-7--3-3-3-3-3-----------------|

Take a piece of our lives

e|-------------------------------------|
b|-------------------------------------|
g|-------------------------------------|
d|9-9-9-9-9--5-5-5-5-5-----------------|
a|9-9-9-9-9--5-5-5-5-5-----------------|
e|7-7-7-7-7--3-3-3-3-3-----------------|

didn't think that we would care...

e|--------------------------|
b|--------------------------|
g|--------------------------|
d|2-2-2-2-2--5-5-5-5-5------|
a|2-2-2-2-2--5-5-5-5-5------|
e|0-0-0-0-0--3-3-3-3-3------|

Now it's, no it's no fair

e|-------------------------------------|
b|-------------------------------------|
g|-------------------------------------|
d|7-7-7-7-7--5-5-5-5-5-----------------|
a|7-7-7-7-7--5-5-5-5-5-----------------|
e|5-5-5-5-5--3-3-3-3-3-----------------|

no fair

e|-------------------------------------|
b|-------------------------------------|
g|-------------------------------------|
d|7-7-7-7-7--5-5-5-5-5-----------------|
a|7-7-7-7-7--5-5-5-5-5-----------------|
e|5-5-5-5-5--3-3-3-3-3-----------------|

 no fair

e|-------------------------------------|
b|-------------------------------------|
g|-------------------------------------|
d|7-7-7-7-7--5-5-5-5-5-----------------|
a|7-7-7-7-7--5-5-5-5-5-----------------|
e|5-5-5-5-5--3-3-3-3-3-----------------|

 no fair...


e|------------------------------------------------|
b|------------------------------------------------|
g|11-11-11-12--12-12-11/7-9-9-9-7/4-4--4--4/7-7/9-|
d|------------------------------------------------|
a|------------------------------------------------|
e|------------------------------------------------|

e|-------------------------------------------------|
b|-------------------------------------------------|
g|9/11-11-11-12--12-12-11/7-9-9-9-7/4-4--4--4/7-7b-|
d|-------------------------------------------------|
a|-------------------------------------------------|
e|-------------------------------------------------|

e|------------------------------------------------|
b|------------------------------------------------|
g|8h9p8h9b--8h9p8h9b--8h9p8h9b--8h9p8-4b----------|
d|------------------------------------------------|
a|------------------------------------------------|
e|------------------------------------------------|


Verses:

e|-------------------------------------|
b|-------------------------------------|
g|-------------------------------------|
d|9------------------------------------|
a|9------------------------------------|
e|7------------------------------------|

Take a piece


e|--------------------------------------|
b|--------------------------------------|
g|--------------------------------------|
d|5-------------------------------------|
a|5-------------------------------------|
e|3-------------------------------------|

Of our lives!?


e|------------------------------------------------|
b|------------------------------------------------|
g|------------------------------------------------|
d|9-----------5-5-5-5-5-5-------------------------|
a|9-----------5-5-5-5-5-5-------------------------|
e|7-----------3-3-3-3-3-3-------------------------|

Didn't think that we would care?


Chorus:

e|--------------------------|
b|--------------------------|
g|--------------------------|
d|2-2-2-2-2--5-5-5-5-5------|
a|2-2-2-2-2--5-5-5-5-5------|
e|0-0-0-0-0--3-3-3-3-3------|

Now it's, no it's no fair

e|-------------------------------------|
b|-------------------------------------|
g|-------------------------------------|
d|7-7-7-7-7--5-5-5-5-5-----------------|
a|7-7-7-7-7--5-5-5-5-5-----------------|
e|5-5-5-5-5--3-3-3-3-3-----------------|

no fair

e|-------------------------------------|
b|-------------------------------------|
g|-------------------------------------|
d|7-7-7-7-7--5-5-5-5-5-----------------|
a|7-7-7-7-7--5-5-5-5-5-----------------|
e|5-5-5-5-5--3-3-3-3-3-----------------|

 no fair

solo: (use the vibrato) repeat X2

e|---------------------------------------------------------------------------------|
b|---------------------------------------------------------------------------------|
g|12-12-12-12-12-12-12-12-11-11-11-11-11-11-11-11-11-11-11-11-11-11-11-11-11-11-11-|
d|---------------------------------------------------------------------------------|
a|---------------------------------------------------------------------------------|
e|---------------------------------------------------------------------------------|


e|---------------------------------------------------------------------------------|
b|---------------------------------------------------------------------------------|
g|11-11-11-11-11-11-11-11-11-11-11-11-11-11-11-11-11-11-119-9-9-9-9-9-9-9-9-9-9-9--|
d|---------------------------------------------------------------------------------|
a|---------------------------------------------------------------------------------|
e|---------------------------------------------------------------------------------|


e|----------------------------------------------|
b|----------------------------------------------|
g|9-9-9-9-9-9-9-9-9-9-9-9-9-9-9-9-8-8-8-8-8-8-8-|
d|----------------------------------------------|
a|----------------------------------------------|
e|----------------------------------------------|


e|------------------------------------|
b|------------------------------------|
g|11-11-11-11-9-9-9-9-8-8-8-8-7-7-7-7-|
d|------------------------------------|
a|------------------------------------|
e|------------------------------------|

e|----------------------------------------------------------------------------------|
b|----------------------------------------------------------------------------------|
g|11-11-11-11-9-9-9-9-8-8-8-8-7-7-7-7--7-7-7-7-6-6-6-6-5-5-5-5-4-4-4-4-4-4-4-4-4-4-4|
d|----------------------------------------------------------------------------------|
a|----------------------------------------------------------------------------------|
e|----------------------------------------------------------------------------------|

Verses:

e|-------------------------------------|
b|-------------------------------------|
g|-------------------------------------|
d|9------------------------------------|
a|9------------------------------------|
e|7------------------------------------|

Take a piece


e|--------------------------------------|
b|--------------------------------------|
g|--------------------------------------|
d|5-------------------------------------|
a|5-------------------------------------|
e|3-------------------------------------|

Of our lives!?


e|---------------------|
b|---------------------|
g|---------------------|
d|9-9-9-9--12--5-------| 
a|9-9-9-9--12--5-------|
e|7-7-7-7--9---3-------|

Didn't think that we would care?

Chorus:

e|--------------------------|
b|--------------------------|
g|--------------------------|
d|2-2-2-2-2--5-5-5-5-5------|
a|2-2-2-2-2--5-5-5-5-5------|
e|0-0-0-0-0--3-3-3-3-3------|

Now it's, no it's no fair

e|-------------------------------------|
b|-------------------------------------|
g|-------------------------------------|
d|7-7-7-7-7--5-5-5-5-5-----------------|
a|7-7-7-7-7--5-5-5-5-5-----------------|
e|5-5-5-5-5--3-3-3-3-3-----------------|

no fair

e|-------------------------------------|
b|-------------------------------------|
g|-------------------------------------|
d|7-7-7-7-7--5-5-5-5-5-----------------|
a|7-7-7-7-7--5-5-5-5-5-----------------|
e|5-5-5-5-5--3-3-3-3-3-----------------|

 no fair

e|-------------------------------------|
b|-------------------------------------|
g|-------------------------------------|
d|7-7-7-7-7--5-5-5-5-5-----------------|
a|7-7-7-7-7--5-5-5-5-5-----------------|
e|5-5-5-5-5--3-3-3-3-3-----------------|

 no fair...

End:

e|------------------------------------------------|
b|------------------------------------------------|
g|11-11-11-12--12-12-11/7-9-9-9-7/4-4--4--4/7-7/9-|
d|------------------------------------------------|
a|------------------------------------------------|
e|------------------------------------------------|

e|------------------------------------------------|
b|------------------------------------------------|
g|9/11-11-11-12--12-12-11/7-9-9-9-7/4-4--4--4/7-7-|
d|------------------------------------------------|
a|------------------------------------------------|
e|------------------------------------------------|

repeat it until the end ....


that's it! it's no faiiiiiiir!

thanks everyone for your comments and rates!


https://www.youtube.com/watch?v=gOYphK94xGY

            
            
Suggest correction
Creating personal tab
Creating personal tab
You can edit any tab online and save it as your Personal.

You can edit, replace or remove any tab part or add personal notes – all changes will be seen only by you.

Personal tabs can be accessed anytime from any device, even offline.
Learn more »
Give kudos to tab author, rate the tab!
1 2 3 4 5
comments
print report bad tab
guest
You may want to rate the tab now too:
select rating
Wanna post a correction for this tab? Suggest correction