Oops, an error
Loading. Please wait.

Pushing The Extreme Tab

886 views 3 this week
no commentswrite comment
1 2 3 4 5
1 last vote to show rating
add to favorites
launch autoscroll
font size
0
reset
how to read this tab
guitar tuner
×
Best way to learn
"Pushing The Extreme"
Autoscroll
slow
fast
+/-
esc
set tempo
stop
From the album "Youth Of America".

The second installment of the Wipers songbook thing I'm trying to accomplish
here. As said before on my "Is This Real?" bookie thing, these sound kinda like
it to me, plus I'm not getting paid, blah blah blah. Buy all of the Wipers
records, you will not regret it.

Youth Of America
Wipers (Greg Sage, Brad Naish, Brad Davidson)
Recorded in 1981
All of these tabs are by John Sixkiller

Pushing The Extreme

Intro and Bridge: (4x)
E--------------------
B--------------------
G-----5-5-5---4-4-4--
D--7--5-5-5---4-4-4--
A--7--3-3-3---2-2-2--
E--5-----------------

Verse and Chorus:
E----------------------------------------
B----------------------------------------
G-----------------------12-12--12-12-12--
D-----------------------12-12--12-12-12--
A--7-5-7-5-7-5-7-5-/-10-10-10--10-10-10--
E--0-0-0-0-0-0-0-0-/-10------------------

Interlude:
E----------------
B----5--------4--
G--5--------4----
D----------------
A----------------
E----------------

Through your mirror there is such vanity
Through the light, it broke to me
That explains?
So you think you fly so free...
But they'll take you so far away...
Leaving no remains...

Pushing the extreme...

In your head is like a movie screen
Why'd it have to cause a scene?
That explains?
So you think your mind is free?
But they'll take it so far away...
Leaving no remains...

Pushing the extreme...

Through your mirror there is such vanity
Tell me, what is it that it wants from me?
You know, child...we used to be in it for the same thing...
But now it's one against the other...
What's this price we've got to pay?

You thought your soul would be free?
But they'll take it so far away...
Leaving no remains...

Pushing the extreme...
Suggest correction
Give kudos to tab author, rate the tab!
1 2 3 4 5
comments
print report bad tab
guest
You may want to rate the tab now too:
select rating
Wanna post a correction for this tab? Suggest correction