Oops, an error
Loading. Please wait.

Bist Du Nicht Muede tab

version 1
version 1

Whole song

10,936 views 6 this week
4 commentsread comments
1 2 3 4 5
1 last vote to show rating
add to favorites
×
Save as Personal and add changes to this tab that will be seen only by you. Learn more ›
×
You can save this tab as Personal to edit and correct it or add notes. All changes will be seen only by you. Learn more »
launch autoscroll
font size
0
reset
how to read this tab
guitar tuner
edit
Autoscroll
slow
fast
+/-
esc
set tempo
stop
Difficulty
Intro/Melody Guitar                         Variation
-------------------------------------------------------------|
-------------------------------------------------------------|
-------------------------------------------------------------|
---------------------------------------------0-0-0-0-1-1-1-1-| 
-0-0-----------------0-0-------------------------------------|
-----2-2-1-1-1-2-1-------2-2-1-1-1-2-1-----------------------|


-IntroGit-
Bist du nicht müde, nach so vielen Stunden
Du wankst und taumelst, deine Füße zerschunden
Drehst dich im Kreis, bis der Tag verschwimmt
Und hoffst am Ende, dass die Nacht dich noch nimmt
-Variation-                 -IntroGit-
Ich find dich am Boden, den Rücken zur Wand
Den Blick zur Tür, zwei Steine in jeder Hand
    A                    E
Gib mir das, ich kann es halten
    D                    E
Gib mir das, ich kann es halten
    D                    E
Gib mir das, ich kann es halten
           A                E
Wenn du es später noch willst
              F#-
Kriegst du es wieder
Dann ist alles beim Alten

            
            
Suggest correction
Creating personal tab
Creating personal tab
You can edit any tab online and save it as your Personal.

You can edit, replace or remove any tab part or add personal notes – all changes will be seen only by you.

Personal tabs can be accessed anytime from any device, even offline.
Learn more »
Give kudos to tab author, rate the tab!
1 2 3 4 5
comments
print report bad tab
4 comments total. Showing first comments.
+1 reply
chrisn12345 10 Jun 03, 2007 11:04 AM

i thing every F on your E String should be a E. So like
A--0--0-----------------
E------2--2-0--0--0-1-0-

0 reply
Torsional 92 Jan 07, 2008 07:07 AM

-------------------------------------------------------------|
--------------------------------------------------------
-----|
-------------------------------------------------------------|
---------------------------------------------0-0
-0-0-2-2-2-2-|

-0-0-----------------0-0-------------------------------------|
-----2-2-0-0-0-2-0-------2-2-0-0-0-2-0----------------
-------|

But thanks :D

+1 reply
Torsional 92 Jan 07, 2008 07:08 AM

Okay sorry that didn't fit but it just said that all the 1's on E should be 0's and that the 1's on D should be 2's.
That is, that's what I hear. :)

guest
Wanna post a correction for this tab? Suggest correction