Oops, an error
Loading. Please wait.

Du Erkennst Mich Nicht Wieder tab

version 1
version 1

Whole song

Interactive

18,821 views 12 this week
4 commentsread comments
1 2 3 4 5
x 5
add to favorites
×
Save as Personal and add changes to this tab that will be seen only by you. Learn more ›
×
You can save this tab as Personal to edit and correct it or add notes. All changes will be seen only by you. Learn more »
launch autoscroll
font size
0
reset
how to read this tab
guitar tuner
edit
Autoscroll
slow
fast
+/-
esc
set tempo
stop
Das ganze ist ziemlich einfach und stimmt 90%ig.
Hab ihr beim Konzert au fide Finger geguckt.

Verse(=Intro)
|----------------------------------------------------|
|----------------------------------------------------|
|----------------------------------------------------|
|---8----8-8---8-8---8-8---8-8---8-8---8-5---5-------|
|--6-6-6--5-5-5-6-6-6-5-5-5-6-6-6-5-5-5-3-3-3--6---6-|
|---------------------------------------------4-4-4--|
 und dann mal nur
"Chorus":
|--------------------------|
|--------------------------|
|--------------------------|
|--8---8-8---8-5---5-------|
|-6-6-6-5-5-5-3-3-3--6---6-|
|-------------------4-4-4--|

Und der rocking Part dann so (bin ich mir jetzt nicht ganz so sicher):

|----------------------------------------------------------|
|----------------------------------------------------------|
|-8-8-8-8-8-8-8----------------6-6-6-6-6-6-6---------------|
|-8-8-8-8-8-8-8-10101010101010-6-6-6-6-6-6-6-6-6-6-6-6-6-6-|
|-6-6-6-6-6-6-6-10101010101010-4-4-4-4-4-4-4-6-6-6-6-6-6-6-|
|---------------8-8-8-8-8-8-8----------------4-4-4-4-4-4-4-|
Abfolge:

5xVerse
1xChorus
2xVerse
1xChorus
~10xrocking Part

Den Rüttmus in dem man das ganze Spielt werdet ihr schon herausfinden. Und den
Schlagrüttmus auch. Es sei denn ihr seit Ö3 hörer dann vergesst es ihr seit viel
zu dumm dafür.

mfg Martin

            
            
Suggest correction
Creating personal tab
Creating personal tab
You can edit any tab online and save it as your Personal.

You can edit, replace or remove any tab part or add personal notes – all changes will be seen only by you.

Personal tabs can be accessed anytime from any device, even offline.
Learn more »
comments
print report bad tab
4 comments total. Showing first comments.
+3 reply
Bobic123 51 Apr 11, 2010 03:21 PM

ich hab noch nie gesehen, dass jmd so geil rhythmus geschrieben hat!^^

+1 reply
fleckie 132 Aug 18, 2011 12:58 PM

überhaupt der seitenhieb auf ö3 hörer kommt so um einiges geiler !

0 reply
xFstkllrbaumix 10 May 13, 2015 08:41 AM

versuch den rockpart mal so:
-----------------/-----------------/-----------------/-----------------/
-----------------/-----------------/-----------------/-----------------/
-8-8-8-8-8-8-8-8-/-8-8-8-8-8-8-8-8-/-5-5-5-5-5-5-5-5-/-----------------/
-8-8-8-8-8-8-8-8-/-8-8-8-8-8-8-8-8-/-5-5-5-5-5-5-5-5-/-6-6-6-6-6-6-6-6-/
-6-6-6-6-6-6-6-6-/-5-5-5-5-5-5-5-5-/-3-3-3-3-3-3-3-3-/-6-6-6-6-6-6-6-6-/
-----------------/-----------------/-----------------/-4-4-4-4-4-4-4-4-/

guest
You may want to rate the tab now too:
select rating
Wanna post a correction for this tab? Suggest correction