Oops, an error
Loading. Please wait.

Gekommen Um Zu Bleiben bass

version 1
version 1

Whole song

Interactive

2,102 views 1 this week
1 commentread comment
1 2 3 4 5
x 3
add to favorites
×
Save as Personal and add changes to this tab that will be seen only by you. Learn more ›
×
You can save this tab as Personal to edit and correct it or add notes. All changes will be seen only by you. Learn more »
launch autoscroll
font size
0
reset
guitar tuner
edit
Autoscroll
slow
fast
+/-
esc
set tempo
stop
Author
Difficulty
-------------------------------------------------------------------------------
                   Gekommen um zu bleiben - Wir sind Helden
-------------------------------------------------------------------------------
Tabbed by: Martin Messner
Email: bigbonsai@hotmail.de

Tuning: E-Standard

//////////////////////////////////////////////
//                                          //
//  RATING THIS TAB TAKES ABOUT 5 SECONDS   //
//  AND HELPS ME TO IMPROVE MY WORK         //
//                                          //
//////////////////////////////////////////////

Mainpart
G|-------------------------------------------------------------------|
D|-------------------------------------------------------------------|
A|---------------------------1-------4-------4-----3----1------------|
E|---1-------3-------4--------------------------------------4--3-----|
     |               |               |               |     
     Beat(1st)       Beat(2nd)       Beat(3rd)       Beat(4th)



Prechorus (Ihr sagt "Was so abgeht must doch bitte come down")
          (Ich sag den Untergang ab ohne runter zu schauen)

G|-------------------------------------------------------|
D|-------------------------------------------------------|
A|--8--10--11--8--7--8--10--7--6--8--9--6--5--6--8--5----|
E|-------------------------------------------------------|
    |             |            |           |
    Was......     bitte......  Untergang...runter....


G|---------------------------------------------------------------------------|
D|---------------------------------------------------------------------------|
A|------8---------8-------7---------7----------6---------6-----5----5-----4--|
E|---------------------------------------------------------------------------|
    Wir geh'n nicht, aber wenn wir geh'n, dann geh'n wir in Scheiben
Suggest correction
Creating personal tab
Creating personal tab
You can edit any tab online and save it as your Personal.

You can edit, replace or remove any tab part or add personal notes – all changes will be seen only by you.

Personal tabs can be accessed anytime from any device, even offline.
Learn more »
Give kudos to tab author, rate the tab!
1 2 3 4 5
comments
print report bad tab
1 comment total.
0 reply
Torsional 92 Apr 14, 2011 02:44 PM

Ist es nicht 1,3,4,6 am anfang? Ausser das rockt das hier voll.

guest
You may want to rate the tab now too:
select rating
Wanna post a correction for this tab? Suggest correction