Oops, an error
Loading. Please wait.

Three Girl Rhumba Bass Tab

by Wire
1,191 views 12 this week
no commentswrite comment
1 2 3 4 5
please rate
add to favorites
launch autoscroll
font size
0
reset
guitar tuner
Tab Pro tools
  • play this tab
  • loop segment
  • change instrument
  • show fretboard
  • metronome
×
Best way to learn
"Three Girl Rhumba"
Autoscroll
slow
fast
+/-
esc
set tempo
stop
Contributor
Difficulty
novice
Artist: Wire
Song: Three Girl Rhumba
Album: Pink Flag (1977)
Tapped by: Spritez36 (spritez36@hotmail.com) Email me any corrections or requests

This is my first tab....I've learned to mess around and figure it all out :) I hope 
there's nothing wrong with it

Intro

The bass comes in around 0:06

G|------------------|
D|------------------|    Repeat as many times needed
A|-2-----0-2--2-----|
E|---0-2------------|

Verse

G|------------------|
D|------------------|    Repeat as many times needed
A|-2-----0-2--2-----|
E|---0-2------------|

Variation of the riff that is also played in the verse

G|------------------|
D|------------------|    Repeat as many times needed
A|-2-----0-2--2-----|
E|---0--------------|

Chorus (or Bridge; the song is too short to tell)

G|-------------------|----------|
D|-------------------|----------|
A|-------------------|-2--0-2-2-|
E|-0~----2~----5~----|----------|
                       ^
                       end on that note the second time around

Pause

Then play:

Verse & Variation

Outro

G|-----------------------------|
D|-----------------------------|
A|-------------------2-2-2-2-2-|
E|-0~----2~----5~--------------|
comments
We did not receive enough feedback on this tab! Please rate:
print report bad tab
1 2 3 4 5
I want to post or [tab]
guest
You may want to rate the tab now too:
select rating
Please do not post tabs as comments. Select "correction" instead!