Oops, an error
Loading. Please wait.

Big Coat Tab

2,317 views 9 this week
no commentswrite comment
1 2 3 4 5
please rate
add to favorites
launch autoscroll
font size
0
reset
how to read this tab
guitar tuner
Autoscroll
slow
fast
+/-
esc
set tempo
stop
Help us to improve Ultimate-Guitar.com Take our survey!
×
Author
Tuning
Capo
D# G# C# F# A# D#
2nd fret
-------------------------------------------------------------------------------
                                            Big Coat by Wiretree
-------------------------------------------------------------------------------
Tabbed by: dstriz09

Tuning: Half-step down

This is tabbed from their live performance (found here -> 
http://www.youtube.com/watch?v=D7GkN3n6d68) and it seems to be tuned a half step 
down. For the album version, just put 
a capo on 2 (standard tuning) and it should work just the same. Let me know of any 
mistakes found and any and all feedback is welcome!

p.s. Sorry about the format. I tabbed out the strumming for some parts and just wrote 
the chords for others but if you listen to the link I posted, it shouldn't be too hard to 
pick up. If any part is too confusing, feel free to ask for clarification in the comments.

intro:
eb |------0---0---0---0-----0--0--0--0-------------------------------------------|
Bb |------0---0---0---0-----0--0--0--0--------------0--0--0--0-----0--0--0--0----|
Gb |------0---0---0---0-----2--0--0--0--------------0--0--0--0-----2--0--0--0----|
Db |------2---2---2---2-----2--2--4--2--------------0--0--0--0-----0--0--4--0----|
Ab |------2---2---2---2-----2--2--2--2--------------2--2--2--2-----2--2--2--2----|
Eb |---0--0---0---0---0-----0--0--0--0----------3---3--3--3--3-----3--3--3--3----|

--------0--0--0--0-----0--0--0--0-----------2---------2--|
--------0--0--0--0-----0--0--0--0-----------3---------3--|
--------0--0--0--0-----2--0--0--0-----------4---------2--|  x2
--------2--2--2--2-----2--2--4--2-----------4-----0---0--|
----3---3--3--3--3-----3--3--3--3-------2---2---------0--|
--------------------------------------------2---------2--|

verse:
eb|-----0------------0-----2----2-------------|
Bb|-----0------0-----0-----3----3-------------|
Gb|-----0------0-----0-----4----2-------------|
Db|-----2------0-----2-----4----0-------------|   x2
Ab|-----2------2-----3-----2----0-------------|
Eb|-----0--2---3----------------2-------------|

chorus:
eb|----------0--0--0--0--0--0--0--0--0------2------0--------2-----------|
Bb|----------0--0--0--0--3--1--0--0--0------3------0--------3-----------|
Gb|----------0--0--0--0--0--0--0--2--0------2------0--------2-----------|
Db|----------2--2--2--2--2--2--2--2--2------0------2--------0-----------|
Ab|------3---3--3--3--3--3--3--3--3--3-------------2--------------------|
Eb|------------------------------------------------0--------------------|

eb|----------0--0--0--0--0--0--0--0--0------2------0--------0-------0---------------|
Bb|----------0--0--0--0--3--1--0--0--0------3------1--------1-------3---------------|
Gb|----------0--0--0--0--0--0--0--2--0------2------2--------0-------0---------------|
Db|----------2--2--2--2--2--2--2--2--2------0------2--------2-------4---------------|
Ab|------3---3--3--3--3--3--3--3--3--3-------------0--------3-------5---------------|
Eb|---------------------------------------------------------------------------------|

bridge: (the "ooo" part)
eb|-----0------------0-----2-------------|
Bb|-----0------0-----0-----3-------------|
Gb|-----0------0-----0-----2-------------|
Db|-----2------0-----2-----0-------------|
Ab|-----2------2-----3-----0-------------|
Eb|-----0------3-----------2-------------|




Wiretree's official website: http://wiretreemusic.blogspot.com/
Suggest correction
What's this?
You can suggest a correction to this tab. Community and Mods will review your correction and vote to approve or reject it.
comments
We did not receive enough feedback on this tab! Please rate:
print report bad tab
1 2 3 4 5
guest
You may want to rate the tab now too:
select rating
Please do not post tabs as comments. Select "correction" instead!