Oops, an error
Loading. Please wait.

Anger In Harmony Tab

495 views 1 this week
no commentswrite comment
1 2 3 4 5
please rate
add to favorites
launch autoscroll
font size
0
reset
how to read this tab
guitar tuner
Autoscroll
slow
fast
+/-
esc
set tempo
stop
Help us to improve Ultimate-Guitar.com Take our survey!
×
Anger In Harmony
by Wishbone Ash
from the album Tracks

Transcribed by Rob Watson robert.watson14@btinternet.com

Intro
| F#m | F#m | F#m | F#m |  A  |  A  |  A  |  A  | 
| F#m | F#m | F#m | F#m |

A

When will you ever learn
G                       D
That's what you said to me
A
Bigger the head that turns,
G                 F#m
I say, maybe he's happy
G                 D               Bm      C#m D G slide to A
So quick to fire, never a liar in honesty 
A                                                       G slide to A
It's hinged on a stranger thing than friends or enemies
A
From where comes the song I sing anger in harmony 

                            A
  Left Gtr
E|------------------9-10-9-|12-9-12b14-12-9-|17b19----17-14----14|
B|-------------s10---------|----------------|---------------17---|
G|-------------------------|----------------|--------------------|
D|-------------------------|----------------|--------------------|
A|-------------------------|----------------|--------------------|
E|-------------------------|----------------|--------------------|
 |Right Gtr                |                |                    |
E|-------------------------|9----9b10--9----|(12pb14)r12-9-----9-|
B|-----------------10-12-10|--10----------10|---------------10---|
G|-------------s9----------|----------------|--------------------|
D|-------------------------|----------------|--------------------|
A|-------------------------|----------------|--------------------|
E|-------------------------|----------------|--------------------|

                          Bm                  D
 Left Gtr
E|17---|--12b14-12-9----9|10-10b12-10-9-10-12|12b14-(14)-12-10--9|
B|---17|-------------10--|-------------------|-------------------|
G|-----|-----------------|-------------------|-------------------|
D|-----|-----------------|-------------------|-------------------|
A|-----|-----------------|-------------------|-------------------|
E|-----|-----------------|-------------------|-------------------|
 |Right Gtr              |                   |                   |
E|12-9-|---9b10-9--------|-------------------|-------------------|
B|-----|----------10---10|12-12b14-10---10-12|14b15-(15)-14-12-10|
G|-----|-------------9---|-------------------|-------------------|
D|-----|-----------------|-------------------|-------------------|
A|-----|-----------------|-------------------|-------------------|
E|-----|-----------------|-------------------|-------------------|

  A

 Left Gtr
E|---------17---------|17-------------------------|
B|--15b17-----15b17---|---r15---------------------|
G|--------------------|-------16b17r16-14-16b17-14|
D|--------------------|---------------------------|
A|--------------------|---------------------------|
E|--------------------|---------------------------|
 |Right Gtr           |                           |
E|--------12---------9|---------------------------|
B|--12b14-----12b14---|10-------------------------|
G|--------------------|---9-----------------------|
D|--------------------|---------------------------|
A|--------------------|---------------------------|
E|--------------------|---------------------------|
A
Could he be in love again?
G                           D
You know that she's got the touch
A
The thing is we're just good friends
G                        F#m
Smoke without fire don't mean too much
G                     D               Bm      C#m D G slide to A
Your trigger finger's itching on your loaded tongue 
A                                                       G slide to A
But it's hinged on a stranger thing than friends or enemies
A
From where comes the song I sing anger in harmony 

                            Dmaj7      E9           Bm

E|-------------------------|------0-9b|10-9-7-------|-------------------|
B|------------(5pb7)r5-b7--|----------|------10-7-10|10b12r10-7h10p7---7|
G|-------------------------|----------|-------------|----------------9--|
D|-------------------------|----------|-------------|-------------------|
A|-------------------------|----------|-------------|-------------------|
E|-------------------------|----------|-------------|-------------------|

  F#m                Dmaj7    E                 Bm

E|-----------------7|10-9-7-9|10-12-12b14-12-10|9-10-9---------|
B|10-7-10-10b12-10--|--------|-----------------|-------12-10-12|
G|------------------|--------|-----------------|---------------|
D|------------------|--------|-----------------|---------------|
A|------------------|--------|-----------------|---------------|
E|------------------|--------|-----------------|---------------|

  D                                     A

E|9-10-9----9--------------------------|-----------------------------|
B|-------12---12-10-9-10---------------|-----------------------------|
G|-----------------------11-9----------|-----------------------------|
D|----------------------------11-9-7-9s|11---------------------------|
A|-------------------------------------|-----------------------------|
E|-------------------------------------|-----------------------------|

repeat chorus

A
But it's hinged on a stranger thing than friends or enemies
Bm                      D          F#m
   From where comes the song I sing anger in harmony 

         A

  left guitar
E|------|---------------------|---------|-----------------------------|
B|------|10-10--10h12----10-10|-12b13---|10----12b13-12b13r12p10----10|
G|---s11|-------------11------|-------11|---11-------------------11---|
D|------|---------------------|---------|-----------------------------|
A|------|---------------------|---------|-----------------------------|
E|------|---------------------|---------|-----------------------------|

          F#m

E|-------|4s5----------|------------|12------12------12------12------12---------|
B|----7--|----7-5---5--|5-7tr--12b14|---(14)----(14)----(14)----(14)----r12-10--|
G|--6---6|--------6---6|------------|------------------------------------------9|
D|-------|-------------|------------|-------------------------------------------|
A|-------|-------------|------------|-------------------------------------------|
E|-------|-------------|------------|-------------------------------------------|

                                     A
                                        right guitar
E|----------------------------------|------------------|----------------|
B|12b14r12p10----10-10------10h12---|10----------------|----------------|
G|------------11---------11-------11|------------------|----2-4b6-r4-2-2|
D|----------------------------------|-------------2-4--|2-4-------------|
A|----------------------------------|--------0-s4-----4|----------------|
E|----------------------------------|----0-2-----------|----------------|

                                      F#m

E|------------------|----------------|------------|--------------5-----|
B|------------------|----------------|--2-3-------|----------5-7---8b10|
G|2-----------------|----2-4b6--r4p2h|4-----4b5-2-|---2-4-s6-----------|
D|-------------2-4--|2-4-------------|------------|-4------------------|
A|---0---0-2s4-----4|----------------|------------|--------------------|
E|-----2------------|----------------|------------|--------------------|

                                      A

                                      left guitar
E|---5-------------------|-----------|-----17b19r19-------17|--------|
B|-----8-5---------------|--5-7-5----|--------------17b19---|r17-----|
G|---------8p7p5---7---5h|6-------5h6|----------------------|--------|
D|---------------7---7---|-----------|----------------------|------s4|
A|-----------------------|-----------|0---------------------|----0---|
E|-----------------------|-----------|----------------------|--------|

                               F#m

E|----------10s11|12----------|----------5h6p5|7b9r7b9--7b9-7b9sd|7b9r7b9--7b9|
B|2---2---2-12s13|14----------|5---5-7-7------|------------------|------------|
G|2---2---2------|------------|--6------------|------------------|------------|
D|--4---4--------|------------|---------------|------------------|------------|
A|---------------|------12sd--|---------------|------------------|------------|
E|---------------|------------|---------------|------------------|------------|

                                        A

                                           right guitar
E|------12-----------------------------|-----------------------|
B|12b14----r12-10-12b14-12b14-r12p10---|10------10-12----10-12b|
G|-----------------------------------11|----s11-------11-------|
D|-------------------------------------|-----------------------|
A|-------------------------------------|-----------------------|
E|-------------------------------------|-----------------------|

E|---10-11-12-------------12---|---12----12------12----12----|--------------|
B|14----------10----12b13-12b14|---12b14-12b14---12b13-12b14-|10----10-12b15|
G|---------------11------------|-----------------------------|---11---------|
D|-----------------------------|-----------------------------|--------------|
A|-----------------------------|-----------------------------|--------------|
E|-----------------------------|-----------------------------|--------------|

  F#m

E|----------|---------------------|12b14-12-12b14-12|12b14-12-------12-12--|
B|b17--12b14|12----12-12--12----12|-----------------|---------12b14----r12-|
G|----------|---11-----------11---|-----------------|----------------------|
D|----------|---------------------|-----------------|--------------------2h|
A|----------|---------------------|-----------------|----------------------|
E|----------|---------------------|-----------------|----------------------|

  A

  left guitar
E|----------------------|----5----------------------|--------------|----------|
B|10--------------------|--5---8-5-7-s5---5---------|--------------|------5---|
G|--2-4-4b5r4p2---2---4s|6--------------7---5sb-----|--------------|5sb-7---5-|
D|4-------------4-------|-----------------------7---|-6p5---5-7---7|----------|
A|----------------------|---------------------------|-----7--------|----------|
E|----------------------|---------------------------|--------------|----------|

  F#m

E|----------------|--------------------|-------------------------------|
B|--------------7-|--------------------|-------------------------------|
G|2---2-4b6r4b6---|r4-2---2-2---2h4p2--|2h4p2---2h4p2---2h4p2---2h4p2--|
D|--4-------------|-----4-----4-------4|------4-------4-------4-------4|
A|----------------|--------------------|-------------------------------|
E|----------------|--------------------|-------------------------------|

                                          A
               right guitar
E|-------------14-------14-------14------|14-------14-------14-------14-------14-------14------|
B|----------------17b19----17b19----17b19|---17b19----17b19----17b19----17b19----17b19----17b19|
G|2h4p2---2-2----------------------------|-----------------------------------------------------|
D|------4--------------------------------|-----------------------------------------------------|
A|---------------------------------------|-----------------------------------------------------|
E|---------------------------------------|-----------------------------------------------------|

E|14-------14-------14-------14-------14-------14------|14-------14-------14-------14-------14-------14------|
B|---17b19----17b19----17b19----17b19----17b19----17b19|---17b19----17b19----17b19----17b19----17b19----17b19|
G|-----------------------------------------------------|-----------------------------------------------------|
D|-----------------------------------------------------|-----------------------------------------------------|
A|-----------------------------------------------------|-----------------------------------------------------|
E|-----------------------------------------------------|-----------------------------------------------------|

                                               F#m

E|14-------14-------14-------14-------14-17b19|---17-14h17p14----14------|------------------------|
B|---17b19----17b19----17b19----17b19---------|---------------17----17-14|15-14-------------------|
G|--------------------------------------------|--------------------------|------16-14----14-14----|
D|--------------------------------------------|--------------------------|------------16--------16|
A|--------------------------------------------|--------------------------|------------------------|
E|--------------------------------------------|--------------------------|------------------------|

                                                 D                  F#m

E|----------------|-----------------------------|---------------14b|15r14tr-17sd|
B|--15b17-15-14---|---------14------------------|15-------15-17----|------------|
G|--------------16|14-16b18----16b18r16p14----14|---14s16----------|------------|
D|----------------|------------------------16---|------------------|------------|
A|----------------|-----------------------------|------------------|------------|
E|----------------|-----------------------------|------------------|------------|

  A                              D                   F#m     D

E|--8-5---------5-|--8-5--------|-----------------14|---17sd|-----------|------------15b17|
B|--7-5---5-----5-|--7-5---5----|15-------15---17---|-------|15-14------|------14-12------|
G|------7---5h6---|------7---6--|---14s16----15-----|-------|------16-14|-----------------|
D|----------------|------------7|-------------------|-------|-----------|12-13------------|
A|----------------|-------------|-------------------|-------|-----------|-----------------|
E|----------------|-------------|-------------------|-------|-----------|-----------------|

  A

E|--|r15--r15--r15--r15b17---|
B|--|------------------------|
G|--|------------------------|
D|--|------------------------|
A|--|------------------------|
E|--|------------------------|
Suggest correction
Give kudos to tab author, rate the tab!
1 2 3 4 5
comments
print report bad tab
guest
You may want to rate the tab now too:
select rating
Please do not post tabs as comments. Select "correction" instead!