Oops, an error
Loading. Please wait.

Blind Eye Tab

4,549 views 9 this week
no commentswrite comment
1 2 3 4 5
excellent!
x 1
add to favorites
launch autoscroll
font size
0
reset
how to read this tab
guitar tuner
Tab Pro tools
  • play this tab
  • loop segment
  • change instrument
  • show fretboard
  • metronome
Autoscroll
slow
fast
+/-
esc
set tempo
stop
Contributor
Title: Blind Eye
Artist: Wishbone Ash

Legend of symbols used in this tab:


b               bend
r               release
p               pull off
h               hammer on


e|-------------------------------|-------------------------------|
B|--------10---------------------|--------10---------------------|
G|------9-12b14r12-9-9---------9-|------9-12b14r12-9-9---------9-|
D|-9-12----------------12-9-12---|-9-12----------------12-9-12---|
A|-------------------------------|-------------------------------|
E|-------------------------------|-------------------------------|

e|----------------12-12-10-------|
B|---8-10b12r10-8----------12----|
G|-9--------------------------12-|
D|-------------------------------|
A|-------------------------------|
E|-------------------------------|

e|-------------------------------|-------------------------------|
B|--------10---------------------|--------10---------------------|
G|------9-12b14r12-9-9---------9-|------9-12b14r12-9-9---------9-|
D|-9-12----------------12-9-12---|-9-12----------------12-9-12---|
A|-------------------------------|-------------------------------|
E|-------------------------------|-------------------------------|

e|-10-9--------------------------|
B|------12-10----10------10------|
G|------------12----9-12---------|
D|-------------------------------|
A|-------------------------------|
E|-------------------------------|

e|-------------------------------|-------------------------------|
B|--------10---------------------|--------10---------------------|
G|------9-12b14r12-9-9---------9-|------9-12b14r12-9-9---------9-|
D|-9-12----------------12-9-12---|-9-12----------------12-9-12---|
A|-------------------------------|-------------------------------|
E|-------------------------------|-------------------------------|

e|---------------------------------------------------------------------|
B|-8-10b12r10-8-10b12r10-8-10b12r10-8-10b12r10-8-10b12r10-8-10b12r10-8-|
G|---------------------------------------------------------------------|
D|---------------------------------------------------------------------|
A|---------------------------------------------------------------------|
E|---------------------------------------------------------------------|

e|----------------10b12-10-8------|
B|-10b12-12-12-12------------10-8-|
G|--------------------------------|
D|--------------------------------|
A|--------------------------------|
E|--------------------------------|

e|---------------------------------------------------------------------|
B|-8-10b12r10-8-10b12r10-8-10b12r10-8-10b12r10-8-10b12r10-8-10b12r10-8-|
G|---------------------------------------------------------------------|
D|---------------------------------------------------------------------|
A|---------------------------------------------------------------------|
E|---------------------------------------------------------------------|

e|-10-10-10-10-10p9p7h9p7-|
B|------------------------|
G|------------------------|
D|------------------------|
A|------------------------|
E|------------------------|

e|---------------------------------------------------------------------|
B|-8-10b12r10-8-10b12r10-8-10b12r10-8-10b12r10-8-10b12r10-8-10b12r10-8-|
G|---------------------------------------------------------------------|
D|---------------------------------------------------------------------|
A|---------------------------------------------------------------------|
E|---------------------------------------------------------------------|

e|-------------------------------|
B|-------------------15p12-------|
G|-------12b14r12-12-------14-14-|
D|-12-14-------------------------|
A|-------------------------------|
E|-------------------------------|

e|---------------------------------------------------------------------|
B|-8-10b12r10-8-10b12r10-8-10b12r10-8-10b12r10-8-10b12r10-8-10b12r10-8-|
G|---------------------------------------------------------------------|
D|---------------------------------------------------------------------|
A|---------------------------------------------------------------------|
E|---------------------------------------------------------------------|

e|-----------------------------|
B|-----------------------------|
G|-----7-9p7-------------------|
D|-7h9-------9-9p7---9p7-------|
A|-----------------9-----7-7-9-|
E|-----------------------------|

e|-------------------------------|-------------------------------|
B|--------10---------------------|--------10---------------------|
G|------9-12b14r12-9-9---------9-|------9-12b14r12-9-9---------9-|
D|-9-12----------------12-9-12---|-9-12----------------12-9-12---|
A|-------------------------------|-------------------------------|
E|-------------------------------|-------------------------------|

e|-12-15b17r15-12----------------------|
B|----------------15p12----------------|
D|----------------------14b16r14-12----|
A|----------------------------------14-|
E|-------------------------------------|

e|-------------------------------|-------------------------------|
B|--------10---------------------|--------10---------------------|
G|------9-12b14r12-9-9---------9-|------9-12b14r12-9-9---------9-|
D|-9-12----------------12-9-12---|-9-12----------------12-9-12---|
A|-------------------------------|-------------------------------|
E|-------------------------------|-------------------------------|

e|---------------------------------------------------------------------|
B|-8-10b12r10-8-10b12r10-8-10b12r10-8-10b12r10-8-10b12r10-8-10b12r10-8-|
G|---------------------------------------------------------------------|
D|---------------------------------------------------------------------|
A|---------------------------------------------------------------------|
E|---------------------------------------------------------------------|

e|-12-10--------------------|
B|-------12-10b12r10--------|
G|-------------------12-9---|
D|--------------------------|
A|--------------------------|
E|--------------------------|


e|---------------------------------------------------------------------|
B|-8-10b12r10-8-10b12r10-8-10b12r10-8-10b12r10-8-10b12r10-8-10b12r10-8-|
G|---------------------------------------------------------------------|
D|---------------------------------------------------------------------|
A|---------------------------------------------------------------------|
E|---------------------------------------------------------------------|

e|-15b17-17-17r15-12-------------|
B|-------------------15b17-15-12-|
G|-------------------------------|
D|-------------------------------|
A|-------------------------------|
E|-------------------------------|

e|---------------------------------------------------------------------|
B|-8-10b12r10-8-10b12r10-8-10b12r10-8-10b12r10-8-10b12r10-8-10b12r10-8-|
G|---------------------------------------------------------------------|
D|---------------------------------------------------------------------|
A|---------------------------------------------------------------------|
E|---------------------------------------------------------------------|


e|-------------------------|
B|-------------------------|
G|-------------12-14----12-|
D|-------12-14-------14----|
A|-12-14-------------------|
E|-------------------------|

e|-------------------------------|-------------------------------|
B|--------10---------------------|--------10---------------------|
G|------9-12b14r12-9-9---------9-|------9-12b14r12-9-9---------9-|
D|-9-12----------------12-9-12---|-9-12----------------12-9-12---|
A|-------------------------------|-------------------------------|
E|-------------------------------|-------------------------------|


e|------------------------------------|
B|------------------------------------|
G|------------------------------------|
D|-------12-14p12----14p12----12-12---|
A|-12-14----------14-------14-------14|
E|------------------------------------|


e|-------------------------------|-------------------------------|
B|--------10---------------------|--------10---------------------|
G|------9-12b14r12-9-9---------9-|------9-12b14r12-9-9---------9-|
D|-9-12----------------12-9-12---|-9-12----------------12-9-12---|
A|-------------------------------|-------------------------------|
E|-------------------------------|-------------------------------|


e|-------------------------------|
B|--------10---------------------|
G|------9-12b14r12-9-9---------9-|
D|-9-12----------------12-9-12---|
A|-------------------------------|
E|-------------------------------|


I think there are some mistakes in that tab. If you find them
please contact me. Have Fun!





comments
We did not receive enough feedback on this tab! Please rate:
print report bad tab
1 2 3 4 5
I want to post or [tab]
guest
You may want to rate the tab now too:
select rating
Please do not post tabs as comments. Select "correction" instead!