Oops, an error
Loading. Please wait.

Faith Hope And Love Tab

908 views 1 this week
no commentswrite comment
1 2 3 4 5
excellent!
x 1
add to favorites
launch autoscroll
font size
0
reset
how to read this tab
guitar tuner
Tab Pro tools
  • play this tab
  • loop segment
  • change instrument
  • show fretboard
  • metronome
Autoscroll
slow
fast
+/-
esc
set tempo
stop
Faith Hope and Love
by Wishbone Ash
from the album Bona Fide

Transcribed by Rob Watson robert.watson14@btinternet.com 

Intro 

     Bm       A        G               Bm       F#m        Em                Bm          A
  Gtr R
E|--|-----------------|---------------|------17-----------|-----------------|---------------|
B|--|17b19r17-17----14|15-------------|17b19----r19-----14|15-14------------|17b19r17-17--14|
G|16|-----------------|-------------16|-------------------|------16-------16|---------------|
D|--|-----------------|---------------|-------------------|-----------------|---------------|
A|--|-----------------|---------------|-------------------|-----------------|---------------|
E|--|-----------------|---------------|-------------------|-----------------|---------------|
 |  |                 |               |                   |                 |               |
E|--|-----------------|---------------|------14-----------|-----------------|---------------|
B|--|14b15r14-14------|12-------------|14b15----r14-------|12---------------|14b15r14-14----|
G|11|---------------14|-------------11|-----------------11|---14-12-------11|-------------11|
D|--|-----------------|---------------|-------------------|-----------------|---------------|
A|--|-----------------|---------------|-------------------|-----------------|---------------|
E|--|-----------------|---------------|-------------------|-----------------|---------------|

  G                 Bm       F#m        Em                             Bm
  Gtr R
E|-----------------|-------------------|------------------------------|------|--------|
B|15-17-15---------|17b19r17-17------14|15-14--------15-14h15p14------|------|--------|
G|---------------16|-------------------|------16-----------------16-14|16----|--------|
D|-----------------|-------------------|------------------------------|------|--------|
A|-----------------|-------------------|------------------------------|------|--------|
E|-----------------|-------------------|------------------------------|------|--------|
 |                 |                   |                              |      |        |
E|-----------------|-------------------|------------------------------|------|--------|
B|12-15-12---------|14b15r14--14-------|12----------------------------|------|--------|
G|---------------11|-----------------11|---14-12-----12-11h12p11------|9s11--|--------|
D|-----------------|-------------------|-------------------------14-12|------|--------|
A|-----------------|-------------------|------------------------------|------|--------|
E|-----------------|-------------------|------------------------------|------|--------|

Bm                     F#m
Reflecting back on the life that I once knew
A                            G
I'm pretty sure I could have changed a thing or two
Bm                          F#m
In a restless youth we were wild and running fast
A                         G
And everyone I knew said "Boy you'll never last"

half intro

Bm                F#m
I saw an ad for a player in a band
A              G
I took a train guitar case in my hand
Bm                 F#m
Like a dream,sweet music in my ears
A                        G
Had a little luck on the course we were to steer

Chorus

B5 E5 B5 E5 A
              Never found another reason
B5 E5 B5 E5 G
              You gave me something to believe in
B5 E5 B5 E5 A
              You came and you saved me
B5 E5 B5 E5 G
              Yes I got what I need in 
Bm     F#m      Em
Faith ,Hope and Love
Bm     F#m      Em
Faith ,Hope and Love

Solo 

  (Bm)                                 F#m                A

E|-----7------------------------------|---------9-(9pb10)|r9----------------------12-------|
B|---------------------------10-7---10|7-----------------|---10----------10-12b14----r12-10|
G|9b11---r9-7-6h7p6---6-7-9-------9---|------s9----------|------9----s11-------------------|
D|------------------9-----------------|------------------|---------------------------------|
A|------------------------------------|------------------|---------------------------------|
E|------------------------------------|------------------|---------------------------------|

  G                                                        Bm

E|12b14-(12pb13)r12-(12pb13)r12-(12pb13)r12p10----10-12---|10-------------------------|17b19-------|
B|---------------------------------------------12-------12|---12-12-----15-17b19r17-15|------------|
G|--------------------------------------------------------|---------s16---------------|------------|
D|--------------------------------------------------------|---------------------------|------------|
A|--------------------------------------------------------|---------------------------|------------|
E|--------------------------------------------------------|---------------------------|------------|

Bm                     F#m
I settled down with my family that is true
A                      G
I kept my faith in the music to guide me through
Bm                         F#m
And life can change if you really want it to
A                           G
And you can change too just believe in what you do

Repeat Chorus


End Solo
                                                                with bar
     Bm        G                Em           C                   Bm
E|--|---------|----------------|------------|8b10r8-7-8-7-5-8---|12b14tr-r12-10-9h10p9-7--9-10-9-7---|
B|--|---------|8b10r8-8p7h8----|---------7-8|-------------------|----------------------------------10|
G|--|4---4s6-7|----------------|9------9----|-------------------|------------------------------------|
D|-4|--4------|---------------9|-----9------|-------------------|------------------------------------|
A|--|---------|----------------|------------|-------------------|------------------------------------|
E|--|---------|----------------|------------|-------------------|------------------------------------|

  G                                      Em                     C                      Bm

E|7-7-----------------------------------|----------------------|---3---3----12--------|---9-10p9----12b14|
B|----10-7------7-----------------------|----------------------|----------------------|12--------12------|
G|---------9b11---9b11r9-7--9b11r9-7----|-7s9-9-9s7---7s9-9-9-9|s5---5---s12----12-s11|------------------|
D|-----------------------------------9-7|-----------9----------|----------------------|------------------|
A|--------------------------------------|----------------------|----------------------|------------------|
E|--------------------------------------|----------------------|----------------------|------------------|

  G                                  Em

E|b15-(15)-(15)-(15)-(15)r14-(15)r12|(14pb15)r14-12-----------------------------------------|
B|----------------------------------|---------------15b17--15-12--------------12------------|
G|----------------------------------|----------------------------14b16--14b16----14---------|
D|----------------------------------|------------------------------------------------14-----|
A|----------------------------------|-------------------------------------------------------|
E|----------------------------------|-------------------------------------------------------|

  C                        Bm                               G
     with trem arm                                          ( 3 times               )
E|-------------15-15-15-15|--------------------------------|------14-17-------14-17------14-17-14|
B|---13-13-13-------------|17b19r18b19r18b19r18b19-17b18-17|17b19-------17b19---------17---------|
G|12----------------------|--------------------------------|-------------------------------------|
D|------------------------|--------------------------------|-------------------------------------|
A|------------------------|--------------------------------|-------------------------------------|
E|------------------------|--------------------------------|-------------------------------------|

  Em

E|19s17p14-17p14----19s17p14----17p14----19p17p14----17p14-19p17p14----14------------14-17b19--|
B|---------------17----------17-------17----------17----------------17----1714h15h17-----------|
G|---------------------------------------------------------------------------------------------|
D|---------------------------------------------------------------------------------------------|
A|---------------------------------------------------------------------------------------------|
E|---------------------------------------------------------------------------------------------|

  C

E|20b22-20b22-20-19-20|
B|--------------------|
G|--------------------|
D|--------------------|
A|--------------------|
E|--------------------|

Intro

Chorus
comments
We did not receive enough feedback on this tab! Please rate:
print report bad tab
1 2 3 4 5
I want to post or [tab]
guest
You may want to rate the tab now too:
select rating
Please do not post tabs as comments. Select "correction" instead!