Oops, an error
Loading. Please wait.

Persephone Tab

version 1
version 1

Whole song

8,143 views 12 this week
1 commentread comment
1 2 3 4 5
x 3
add to favorites
launch autoscroll
font size
0
reset
how to read this tab
guitar tuner
Autoscroll
slow
fast
+/-
esc
set tempo
stop
Help us to improve Ultimate-Guitar.com Take our survey!
×
Author
Difficulty
intermediate
Persephone
by Wishbone Ash
from their album There's the Rub

The Intro and middle solos I copied from Rob Watsons tab on the
same site, just because they are perfect and I don't see why
should I try making them more sharp than they are.

Great song, enjoy.

Am                   Bm          Am

E|-------|--------------------|-----------|12-14-15--17-15-|
B|-------|12-(12pb13)r12------|12-12-13-15|----------------|
G|--12-14|---------------14-12|-----------|----------------|
D|-------|--------------------|-----------|----------------|
A|-------|--------------------|-----------|----------------|
E|-------|--------------------|-----------|----------------|

  B7          C        Am       B             Am

E|14-------14|15----------17-15|14---15-17s19|19----20-19-17---|
B|---16-17---|---17-13---------|-------------|---------------20|
G|-----------|---------14------|-------------|-----------------|
D|-----------|-----------------|-------------|-----------------|
A|-----------|-----------------|-------------|-----------------|
E|-----------|-----------------|-------------|-----------------|

  Bm          Em         D            Em   D     Em   D        Em   D

E|19-17------|-----------------------|----------|-------------|----------|
B|------20-19|17------------(12pb13)r|12--------|-------------|----------|
G|-----------|-----------------------|-----12b14|r12--(9pb11)r|9---------|
D|-----------|-----------------------|----------|-------------|----------|
A|-----------|-----------------------|----------|-------------|----------|
E|-----------|-----------------------|----------|-------------|----------|

 Em   D    Em   D    Em   D    Em   D
| / / / / | / / / / | / / / / | / / / / |


           Bm7                          Am
Theres a light that shines on persephone,
   Bm7                   Am
Always a fire in her eyes,
        Bm7              Am
And the last time that I went to her
        Bm7                 Am
I could tell things weren't right.


  Em        G        Am               Em     G     Am
I just dont care to see your years go wasting,
Em         G       Am           Em    D....
Theres no longer magic in your eyes.

          Bm7      Am          Bm7         Am
In your time, you could outshine everybody else around,
         Bm7            Am
But your off-stage ways might be a bore -
    Bm7             Am
You take a bow, you take a fall.


Chorus

  Em    Bm7      Am    Bm7       C     G    Dsus4 D Dsus4 B7\D#
|  \  \  \  \  |  \  \  \  \  |  \  \  \  \  |  \  \  \  \  |

E|x-x-x------------------------|----------------------|-------------------|12p10h12p10-----8p7-----------|
B|---------------11h12---------|--------------------8-|-4-7-5-------------|--------------------8---------|
G|--------11h12h14-----11-14-12|11--------------------|-------7-5-4-------|------------12--------7-------|
D|-----14----------------------|---14----9h10p9p7h9---|-------------------|------------------------9--9-7|
A|-----------------------------|------14--------------|-------------------|------------------------------|
E|-----------------------------|----------------------|-------------------|------------------------------|


E|-------------------------------------10-12---14-12------|------14-12------|------------------------------12-14-15|
B|----------------------------12-11-10---------------15-12|15b17-------15-12|15b17r15b17r15b17r15b17r15b17---------|
G|------9-8-7---------11-10-9-----------------------------|-----------------|--------------------------------------|
D|9-8-7-------11-10-9-------------------------------------|-----------------|--------------------------------------|
A|--------------------------------------------------------|-----------------|--------------------------------------|
E|--------------------------------------------------------|-----------------|--------------------------------------|


E|12-14-15------|10-7h10p7----7------------------------------------|---17-14-15-12-14-10-12-8-10|
B|---------15sd-|----------10---10-7---7---------------------------|---17-13-15-12-13-10-12-8-10|
G|--------------|--------------------9---9-7---7-------------------|----------------------------|
D|--------------|----------------------------9---9-7---7-----------|----------------------------|
A|--------------|------------------------------------9---9s7-5-7b9r|9---------------------------|
E|--------------|--------------------------------------------------|----------------------------|

                                      ( harmonics )
E|7--14-10-12-7-10-5|7-----------------12----12|-----------------------|----------------|-----------|
B|7--15-10-12-7-10-5|7--------------------12---|7----------------------|----------------|-----------|
G|------------------|--------------------------|----------------------4|4------------4b5|r4------2b4|
D|------------------|--------------------------|-----------------------|----------------|-----------|
A|------------------|--------------------------|-----------------------|----------------|-----------|
E|------------------|--------------------------|-----------------------|----------------|-----------|
                                                                        2/4           4/4
E|------------------|--------------------------|5b7-5-3-5-2------------|2h3--2-3-----|----2-3s5-3h5p3p2---|
B|------------------|-------------3-5----3---3-|------------3----------|---------3s5-|--3---------------3s|
G|r2-0---0----------|-------0-2s4-----4----4---|--------------2--------|-------------|4-------------------|
D|-----2---2--------|---0-2--------------------|-----------------------|-------------|--------------------|
A|-----------2------|--------------------------|-----------------------|-------------|--------------------|
E|------------------|--------------------------|-----------------------|-------------|--------------------|


E|------------------|--------------------------|
B|5-----------3s5s3-|--------3s5s3-------------|
G|------------------|4--------------4-2--------|
D|------------------|--------------------------|
A|------------------|--------------------------|
E|------------------|--------------------------|


    Bm7       Am
I came to be here in the footlights,
     Bm7                         Am
To live with you through every song,
       Bm7               Am
And your face displays a peaceful field.
  Bm7                      Am
I cant believe the curtain has to fall.

Em    G         Am               Em    G   Am
Now I know your years were never wasted,
   Em     G       Am            Em   D....
Tonight I saw the magic in your eyes.


Coda

  Em

E|------------------------------|
B|------8-7---7--8-7-7----------|
G|------9-7-9-7--9-7-7----------|
D|----------9-7--9-7-7-9-7-5----|
A|---------------------------9--|
E|0--0--------------------------|


E|-------------------12---------------------|-------------------12--------------------------|
B|-15b17b15-12-15-------15-12---------------|-15b17b15-12-15-------15-12--------------------|
G|----------------------------14-16-12b-----|----------------------------14h16p12-----------|
D|--------------------------------------14--|-------------------------------------14---14---|
A|------------------------------------------|-----------------------------------------------|
E|------------------------------------------|-----------------------------------------------|


E|-------------------12---------------------|-------------------12-------15b17--15--12~~----|
B|-15b17b15-12-15-------15-12---------------|-15b17b15-12-15-------15-12--------------------|
G|----------------------------14-16-12b-----|-----------------------------------------------|
D|--------------------------------------14--|-----------------------------------------------|
A|------------------------------------------|-----------------------------------------------|
E|------------------------------------------|-----------------------------------------------|

E|-----------------------------------|--------------------------------------------|
B|-----------------------------------|--------------------------------------------|
G|-----------------------------12s14-|-12-----------------------------------12s14-|
D|-s14-----12------------12-14-------|-----14---s14-----12------------12-14-------|
A|------14------14---s14-------------|---------------14------14---s14-------------|
E|-----------------------------------|--------------------------------------------|

E|--------------------------------------------|-----------------------------------------|
B|--------------------------------------------|-----------------------------------------|
G|-12-----------------------------------12s14-|-12-----------------------------------12-|
D|-----14---s14-----12------------12-14-------|-----14---s14-----12------------12-14----|
A|---------------14------14---s14-------------|---------------14------14---s14----------|
E|--------------------------------------------|-----------------------------------------|

Solo

E|--------------------------------------------|-------------------------------------------------------------------|
B|--------17-----------15~~-------------------|-17-----17pb19r17-15--17pb19r17-15--17pb19r17-15--17pb19r17-15--17-|
G|-14b16b16b16r14--12--------14b16-16r14--12--|--------16--~------~--16--~------~--16--~------~--16---------------|
D|--------------------------------------------|-------------------------------------------------------------------|
A|--------------------------------------------|-------------------------------------------------------------------|
E|--------------------------------------------|-------------------------------------------------------------------|


E|----------------------------------------|------------------------------------------|
B|-17b19--17--15----------15------17---20-|-17---15p17-15h17-20p17-15h17-20p17-15h17-|
G|---------------------14-----s16---------|------------------------------------------|
D|----------------------------------------|------------------------------------------|
A|----------------------------------------|------------------------------------------|
E|----------------------------------------|------------------------------------------|

E|-17b19--15------------------17----------------------|------------------------------------17--|
B|-----------17--17b19-18pb20----17pb19-18pb20-17pb19-|-17--15//17\\15//17\\15//17--19--20-----|
G|----------------------------------------------------|----------------------------------------|
D|----------------------------------------------------|----------------------------------------|
A|----------------------------------------------------|----------------------------------------|
E|----------------------------------------------------|----------------------------------------|

E|-19---------------------17--|-19---------------------17--|
B|--------19--20--19--20------|---------19--20--19--20-----|
G|----------------------------|----------------------------|
D|----------------------------|----------------------------|
A|----------------------------|----------------------------|
E|----------------------------|----------------------------|

E|-19------17------------------------|-17--19-------------------|
B|-----20------19--20--17--19h20p19--|--------------------------|
G|-----------------------------------|--------------------------|
D|-----------------------------------|--------------------------|
A|-----------------------------------|--------------------------|
E|-----------------------------------|--------------------------|....
and so on..

pb - prebend
14b16b16b16b16 - hold bend
// \\ // \\ // \\ - whammy bar
Suggest correction
Give kudos to tab author, rate the tab!
1 2 3 4 5
comments
print report bad tab
1 comment total.
0 reply
kakyoshi 21 Feb 26, 2010 09:42 AM

Not Bm7 man. It's Em.

guest
You may want to rate the tab now too:
select rating
Wanna post a correction for this tab? Suggest correction