Oops, an error
Loading. Please wait.

Sometime World Tab

version 1
version 1

Live

1,192 views 1 this week
no commentswrite comment
1 2 3 4 5
please rate
add to favorites
launch autoscroll
font size
0
reset
how to read this tab
guitar tuner
Autoscroll
slow
fast
+/-
esc
set tempo
stop
Help us to improve Ultimate-Guitar.com Take our survey!
×
Author
Difficulty
intermediate
Live version of Sometime World from the live album Live in Geneva (1995)

          Bm                              Bm
 4/4
           Gtr I
|--------|--------------------------|---!7----7-7-(7)--|
|--15b17r|=15-14-15-17-15-14-/12----|---!7----7-7--7---|
|--------|--------------------------|---!7----7-7--7---|
|--------|--------------------------|---!9----9-9--9---|
|--------|--------------------------|---!9----9-9--9---|
|--------|--------------------------|---!7----7-7--7---|


  Em            A                Bm
|-^7----9--7--|-^5----5-5-(5)-|--!7--(7)-------|
|-^8----8--8--|-^5----5-5-(5)-|--!7--(7)-------|
|-^7----7--7--|-^6----6-6-(6)-|--!7--(7)-----9-|
|-^9----9--9--|-^7----7-7-(7)-|--!9--(9)---7---|
|-^7----------|-^0----0-0-----|--!9--(9)-9-----|
|-^0----------|---------------|--!7--(7)-------|


                        Bm
|----------------|---!7-!(7)---!7--(7)---9--10---12-|
|----------------|---!7-!(7)---!7--(7)--------------|
|-7--------------|---!7-!(7)---!7--(7)--------------|
|---9-7----------|---!9-!(9)---!9--(9)--------------|
|-------7-5------|---!9-!(9)---!9--(9)--------------|
|------------7-5-|-7---------7-!7--(7)--------------|


        Em                              A
|-12b14r=(12)------!9----/7-------------|-----------5----|
|------------------!8--------10---------|-----------5----|
|---------------7--!7-------------9pb11r|=9-----6--------|
|-------------9-------------------------|----7-----------|
|---------------------------------------|----------------|
|---------------------------------------|----------------|


     Bm                     A
|-!7----------7-------7-||----------9---------9---------9---------9-|
|-!7----7-------7-------||o-10--------10--------10--------10--------|
|-!7------7-------7-----||---9-9---------9---------9---------9------|
|-!9--------9-------9---||--11---11--------11--------11--------11---|
|-!9--------------------||o--0--------------------------------------|
|-!7--------------------||------------------------------------------|


  G                                   Em
|---------7-------7-------7-------7-|--------7-------7-------7-------7-|
|-^-8-------8-------8-------8-------|----------8-------8-------8-------|
|-^-7-7-------7-------7-------7-----|-!9-9-------9-------9-------9-----|
|-^-9---9-------9-------9-------9---|-!9---9-------9-------9-------9---|
|-^10-------------------------------|-!7-------------------------------|
|-----------------------------------|----------------------------------|


  1.                       2.
  D                        D
|-----------------------||-2--(2)---5-7--9h10-|
|----------7-----7-(7)-o||-3--(3)-7-----------|
|----------7-----7-(7)--||-2--(2)-------------|
|----------7-7h9--------||-0--(0)-------------|
|------7-9-------------o||-0--(0)-------------|
|-7-10------------------||--------------------|


  Bm                     Em                A
|--------------------|----------9--10-|-----10--12-12b14r12-10----10----|
|-7--(7)--5----------|----------------|-12---------------------12-------|
|------------7-6-7-7s|=9---(9)--------|---------------------------------|
|--------------------|----------------|---------------------------------|
|--------------------|----------------|---------------------------------|
|--------------------|----------------|---------------------------------|


  Bm
|---5-7-5--------------|--12-14-15-17---------------|
|-7-------7-5-------12-|--------------15-(15)-14-15-|
|-------------4-(4)----|----------------------------|
|----------------------|----------------------------|
|----------------------|----------------------------|
|----------------------|----------------------------|


     Em                     A
|--------------------/14-|-----------------------------------|
|-17-(17)b19r17-(17)-----|--15-12-15-------------------------|
|------------------------|---------------14-16---------------|
|------------------------|-----------/16-------14-/12--11-12-|
|------------------------|-----------------------------------|
|------------------------|-----------------------------------|


  Bm                       A
|------------------||---------9---------9---------9---------9-|
|-----------------o||-10--------10--------10--------10--------|
|------------------||--9-9---------9---------9---------9------|
|-/9---------------||-11---11--------11--------11--------11---|
|-----/7-5-7-2----o||--0--------------------------------------|
|------------------||-----------------------------------------|


      G
|---------7-------7-------7-------7--|
|-^-8-------8-------8-------8--------|
|-^-7-7-------7-------7-------7------|
|-^-9---9-------9-------9-------9----|
|-^10--------------------------------|
|------------------------------------|


  Em                                 D
|--------7-------7-------7-------7-|-!2--2--3-2-0---|
|----------8-------8-------8-------|-!3--3--3-3-3-3-|
|-!9-9-------9-------9-------9-----|-!2--2--2-2-2-2-|
|-!9---9-------9-------9-------9---|-!0--0--0-0-0-0-|
|-!7-------------------------------|-!0--0--0-0-0-0-|
|----------------------------------|----------------|


  Bm   A      G        A   Bm   A      G            G      Em
|-7----5----|-3------3-5-|-7----5----|-3-------3---------|-0----||
|-7----5----|-3------3-5-|-7----5----|-3-------3---------|-0----||
|-7----6----|-4------4-6-|-7----6----|-4-------4---------|-0----||
|-9----7----|-5------5-7-|-9----7----|-5-------5---------|-2----||
|-9----7----|-5------5-7-|-9----7----|-5-------5---------|-2----||
|-7----5----|-3------3-5-|-7----5----|-3-------3---------|-0----||
Suggest correction
What's this?
You can suggest a correction to this tab. Community and Mods will review your correction and vote to approve or reject it.
comments
We did not receive enough feedback on this tab! Please rate:
print report bad tab
1 2 3 4 5
guest
You may want to rate the tab now too:
select rating
Please do not post tabs as comments. Select "correction" instead!