Oops, an error
Loading. Please wait.

Sometime World Bass Tab

version 2
version 2

Whole song

3,000 views 3 this week
no commentswrite comment
1 2 3 4 5
please rate
add to favorites
launch autoscroll
font size
0
reset
guitar tuner
Tab Pro tools
  • play this tab
  • loop segment
  • change instrument
  • show fretboard
  • metronome
×
Best way to learn
"Sometime World"
Autoscroll
slow
fast
+/-
esc
set tempo
stop
Contributor
Difficulty
intermediate
Artist:  Wishbone Ash          Bass: Martin Turner

Title: Sometime World      Album: Argus     Year: 1972

Bass TAB           Transcribed By Paul Bundock


Verse 1:
   A	     B                E         A
G----------------4-------------------------------|
D--------------4-----4---4-----------------------|
A--0-------2-2---------2----7-7-------0---0-0-0--|
E-------------------------------0-0-3------------|

   B                 B                E
G------------------4-----------------------------|
D----------------4-------------------------------|
A--2---2-2---2-2-----2---2---2-2-2--5-7--7-7-7---|
E------------------------------------------------|

           A                  B
G------------------------------------------------|
D------------------------------------------------|
A--7-------0---0--0-0---0--0--2---2-2-2----------|
E----0-2-3------------3--------------------------|


Bridge:
  A           G            E           A
G-------------------------------------------------|
D-------------------------------------------------|
A--------------------------------------5-5-5555-3-|
E-5--5-3-5-5--3-3-2-3-3--2-0--0-0000-0------------|

  A             G            E           A
G------------------------------------------------|
D------------------------------------------------|
A----------------------------------------5-------|
E--5---5-3-5-5--3-3-2-3-3--2-0--0-0000-0---------|


Guitar Solo:
     B           E          A          B
G-4----------------------------------------------|
D--4---------------------------------------------|
A----2--0-2---5--7--7--7-7-------------2-2-0-2-2-|
E---------------------------5--5-3-5-5-----------|

     B           E          A          B
G--4---------------------------------------------|
D-4----------------------------------------------|
A2---2--0-2---5--7--7--7-7-------------2-2-0-2-2-|
E---------------------------5--5-3-5-5-----------|


Bridge:
  A           G            E           A
G-------------------------------------------------|
D-------------------------------------------------|
A--------------------------------------5-5-5555-3-|
E-5--5-3-5-5--3-3-2-3-3--2-0--0-0000-0------------|

  A             G            E           A
G------------------------------------------------|
D------------------------------------------------|
A----------------------------------------5---5---|
E--5---5-3-5-5--3-3-2-3-3--2-0--0-0000-0---------|


Chorus:
   B     A     G            B      A      G
G------------------------------------------------|
D------------------------------------------------|
A--2--2---------------------2--2-----------------|
E--------5--5--3--3---3--5---------5--5---3---3--|


   G   E    Improvise.....
G------------------------------------------------|
D------------------------------------------------|
A--3---------------------------------------------|
E------0-----------------------------------------|


Up Tempo :


|: Section A Repeat 3 Times

G--9-7-6-----------7-6------6-7----9-7-6----------|
D--------7------7------7-9------9--------7------7-|
A-----------5-7-----------------------------5-7---|
E-------------------------------------------------|

G--7-6------6-7-9-11-9-7------------------9---7---|
D------7-9---------------9--7-----------9-------9-|
A-----------------------------10-9-7-10-----------|
E-------------------------------------------------|

G--11-9-7-----------------(9)--7-6---------------|
D---------9--7-----------9---------9-------------|
A--------------10-9-7-10-------------------------|
E------------------------------------------------|
                                    End Repeat :|

G------------------------------------------------|
D---9---9-9---7---7-7---5---5-5---5--5--5-7-7----|
A------------------------------------------------|
E------------------------------------------------|

G------------------------------6-7-6-----6-7---6-|
D-9-9-9-7-7-7--------------7-8-------7-9-----9---|
A-------------12--7-7-9-10-----------------------|
E------------------------------------------------|
              |   |
              slide

Repeat Section A twice (Guitar Solo)


|: Section B
G------4----------2------------------------------|
D--------4----------2----------------------------|
A--2-2-----2--0-0-----0--------------------------|
E------------------------3--2-3--3-3-2-5---------|

G------4----------------2-------------------------|
D--------4--------2---2-------------------------4-|
A--2-2-----2--0-0---0-------------------2-4-5-7---|
E-------------------------5---0-0-2-3-5-----------|
                          |   |
                          slide

G-------6-7--------------------------------------|
D-5-7-9------------------------------------------|
A------------------------------------------------|
E------------------------------------------------|
                                 End Section B :|


Repeat Section A twice (Guitar Solo)


Play Section B once


G--9-7-6-----------7-6------6-7----9-7-6----------|
D--------7------7------7-9------9--------7------7-|
A-----------5-7-----------------------------5-7---|
E-------------------------------------------------|

G--7-6------6-7-9-11-11-12-11-9-11-12-7-9-7------|
D------7-9----------------------------------9----|
A---------------------------------------------7--|
E------------------------------------------------|

G---------11-9-7-----------9-7-------9-7-6-------|
D----7-9---------9-7-----9-----9-7---------7-----|
A--9-----------------9-7-----------9---------5-7-|
E------------------------------------------------|

G----7-6------6-7----9-7-6----------7-6-----6-7-9-|
D--7-----7-9------9--------7------7-----7-9-------|
A-----------------------------5-7-----------------|
E-------------------------------------------------|

G-11-9-7---------------9-7-----------------------|
D--------9-7---------9-----9-7-------------------|
A------------9-7-9-7-----------9-----------------|
E------------------------------------------------|

G-11-9-7---------------9-7-----------------------|
D--------9-7---------9-----9-7-------------------|
A------------9-7-9-7-----------9-----------------|
E------------------------------------------------|


|: Section C
G------------------------------------------------|
D------------------------------------------------|
A--2--2-2--0--0-0--------------------------------|
E------------------3--3-3--3-3-3-5-5-------------|

G-------------------------------------------------|
D-----------------------------------------------4-|
A--2--2-2--0--0-0-----------------------2-4-5-7---|
E-------------------------5---0-0-2-3-5-----------|
                          |   |
                          slide

G-------6-7--------------------------------------|
D-5-7-9------------------------------------------|
A------------------------------------------------|
E------------------------------------------------|
                                 End Section C :|

|: Section D Repeat 2 Times
G--9-7-6-----------7-6------6-7----9-7-6----------|
D--------7------7------7-9------9--------7------7-|
A-----------5-7-----------------------------5-7---|
E-------------------------------------------------|

G--7-6------6-7-9-11-9-11-12-11-9----------------|
D------7-9------------------------12-11-----7-9--|
A---------------------------------------7-9------|
E------------------------------------------------|

G-------9--11-9-7---------------9-7--------------|
D-----7-----------9-7---------9-----9-7----------|
A-7-9-----------------9-7-9-7-----------9--------|
E------------------------------------------------|
                                    End Repeat :|

G------------------------------------------------|
D------------------------------------------------|
A--2--2-2--0--0-0--------------------------------|
E------------------3--3-3--3-3-3-5-5-------------|

G-------------------------------------------------|
D-----------------------------------------------4-|
A--2--2-2--0--0-0-----------------------2-4-5-7---|
E-------------------------5---0-0-2-3-5-----------|
                          |   |
                          slide

G-------6-7--------------------------------------|
D-5-7-9------------------------------------------|
A------------------------------------------------|
E------------------------------------------------|


Repeat Section A Twice

Play Section C once

Repeat Section A Twice Fade on 2nd Repeat
comments
We did not receive enough feedback on this tab! Please rate:
print report bad tab
1 2 3 4 5
I want to post or [tab]
guest
You may want to rate the tab now too:
select rating
Please do not post tabs as comments. Select "correction" instead!