Oops, an error
Loading. Please wait.

Throw Down The Sword intro tab

version 1
version 1

Intro

  • Added Guitar 1 for measure 3, Corrected chords. Corrected layout.

Whole song

Interactive

9,990 views 15 this week
no commentswrite comment
1 2 3 4 5
x 3
add to favorites
×
Save as Personal and add changes to this tab that will be seen only by you. Learn more ›
×
You can save this tab as Personal to edit and correct it or add notes. All changes will be seen only by you. Learn more »
launch autoscroll
font size
0
reset
how to read this tab
guitar tuner
edit
Autoscroll
slow
fast
+/-
esc
set tempo
stop
Author
Difficulty
About this tab version
Added Guitar 1 for measure 3, Corrected chords. Corrected layout. Was this info helpful? Yes No
-------------------------------------------------------------------------------
                   Throw down the sword - Wishbone ash
-------------------------------------------------------------------------------
Tabbed by: AndyT
Email:andrew(at)norvil.net

Tuning:EADGBe


Measure 1
Guitar I
e|-----------------------------------------------------------|
B|-----------------------------------------------------------|
G|-----------------------------------------------------------|
D|----2--2-----2-0-2-3--3-----2-0---------------0-2---2-0----| x3
A|0~~~~~~~~~~~~~~~~~~~~~~~~~-------3--3-----2-3-----------3-2|
E|-----------------------------------------------------------|


Measure 2
Guitar I
e|-----------------------------------------------------------|
B|-----------------------------------------------------------|
G|-----------------------------------------------------------|
D|----2--2-----2-0-2-3--3-----2-0---------------0-2---2-0----| x6
A|0~~~~~~~~~~~~~~~~~~~~~~~~~-------3--3-----2-3-----------3-2|
E|-----------------------------------------------------------|

Guitar II
e|-----------------------------------------------------------|
B|-------------------3--3------------------------------------|
G|2---5--5-----5-4-5----------5-4--2--2-----0-2-4-5---5-4-2-0|
D|-----------------------------------------------------------| x6
A|-----------------------------------------------------------|
E|-----------------------------------------------------------|


Measure 3 - notes in curly brackets {} played final repeat only.
Guitar I
e|-----------------------------------------------------------|     
B|-----------------------------------------------------------|      
G|-----------------------------------------------------------|      
D|----0--0-----0-2-0---2-0------------------2-0---0-2-0------| x2
A|2-3----------------3--------0-2--3--3---------3--------{3-2}
E|-----------------------------------------------------------|

Guitar II
e|-----------------------------------------------------------|
B|-----------------------------------------------------------|
G|4-2-4--4----4-5-4-2-5-2--------0-2--2-----5-4-2-4-5-4------|
D|-----------------------------3-----------------------------| 
A|-----------------------------------------------------------|
E|-----------------------------------------------------------|

e|-----------------------------------------------------------|
B|-----------------------------------------------------------|
G|0-2-4--4----4-5-4-2-5-2--------0-2--2-----5-4-2-4-5-4------|
D|-----------------------------3-----------------------------| 
A|--------------------------------------------------------2-0|
E|-----------------------------------------------------------|


Measure 4
Guitar I
e|-----------------------------------------------------------|
B|-----------------------------------------------------------|
G|-----------------------------------------------------------|
D|----2--2-----2-0-2-3--3-----2-0---------------0-2---2-0----| x2
A|0~~~~~~~~~~~~~~~~~~~~~~~~~-------3--3-----2-3-----------3-2|
E|-----------------------------------------------------------|


Guitar II
e|-----------------------------------------------------------|
B|-------------------3--3------------------------------------|
G|2---5--5-----5-4-5----------5-4--2--2-----0-2-4-5---5-4-2-0|
D|-----------------------------------------------------------| x2
A|-----------------------------------------------------------|
E|-----------------------------------------------------------|



then there are chords that play through

Throw down the sword~

   Am        C         G          D          ~                  ]
e|-0---0---000---0---00-------------2-2--2-2-------------------|]
B|-1---1---111---1---113--3--3--33--3-3--3-3-------------------|]
G|-2---2---220---0---000--0--0--00--2-2--2-2-------------------|]
D|-2---2---222---2---220--0--0--00--0-0--0-0-------------------|]
A|-0---0---003---3---332--2--2--22--0-0--0-0-------------------|]
E|---------------------3--3--3--33-----------------------------|]
                                                                ]  
   F         C         D          D          ~                  ] 
e|-1---1---000---0---002--2--2--22--2-2--2-2-------------------|]
B|-1---1---111---1---113--3--3--33--3-3--3-3-------------------|]
G|-2---2---220---0---002--2--2--22--2-2--2-2-------------------|]
D|-3---3---222---2---220--0--0--00--0-0--0-0-------------------|]
A|-3---3---003---3---330--0--0--00--0-0--0-0-------------------|]
E|-1---1-------------------------------------------------------|]
                                                                ]-x2


There were times~
(strumming pattern is up to you)
 F   F   C   C C/G
 Am  G   F~~~~~~~~


C/G = 

e|---0--------0---|
B|---1--------3---|
G|---0-- or --0---|
D|---0--------0---| 
A|---2--------2---|
E|----------------|

===============================================================================

            
            
Suggest correction
Creating personal tab
Creating personal tab
You can edit any tab online and save it as your Personal.

You can edit, replace or remove any tab part or add personal notes – all changes will be seen only by you.

Personal tabs can be accessed anytime from any device, even offline.
Learn more »
Give kudos to tab author, rate the tab!
1 2 3 4 5
comments
print report bad tab
guest
You may want to rate the tab now too:
select rating
Wanna post a correction for this tab? Suggest correction