Oops, an error
Loading. Please wait.

Throw Down The Sword Tab

version 1
version 1

Whole song

Interactive

5,109 views 1 this week
1 commentread comment
1 2 3 4 5
please rate
add to favorites
launch autoscroll
font size
0
reset
how to read this tab
guitar tuner
Tab Pro tools
  • play this tab
  • loop segment
  • change instrument
  • show fretboard
  • metronome
×
Best way to learn
"Throw Down The Sword"
Autoscroll
slow
fast
+/-
esc
set tempo
stop
Throw Down The Sword ( End Solo )
by Wishbone Ash
from the album Live Dates

Transcribed by Rob Watson robert.watson14@btinternet.com

  Am       C                  G                  D
  3.42
E|12h15-12-12h15--15-12-10-8-|10-8h10p8s7-8-------------------|
B|---------------------------|--------------10-8-10-8---------|
G|---------------------------|------------------------7b9-5-7-|
D|---------------------------|--------------------------------|
A|---------------------------|--------------------------------|
E|---------------------------|--------------------------------|

  F              C           Gsus4           G

E|--------------------------|------15-15-------------------17|
B|----------------8-------13|15b17-------15b17-15-17-18-20---|
G|7b9-5-----5-7s9---12s14---|--------------------------------|
D|------7-5-----------------|--------------------------------|
A|--------------------------|--------------------------------|
E|--------------------------|--------------------------------|

  Am       C                  G                  D

E|------------17-19---------------|--------------------------------|
B|20b22-20b22-------20b22-20-17-20|20-17-20-17-------------------20|
G|--------------------------------|------------19b21-19-17-19b21---|
D|--------------------------------|--------------------------------|
A|--------------------------------|--------------------------------|
E|--------------------------------|--------------------------------|

  F              C               D

E|------------------------------|-------------20b22-20b22-20b22-|
B|20-20-------------------------|-------------------------------|
G|------r19-17-16-17-16-16-17-19|19-----------------------------|
D|------------------------------|-------------------------------|
A|------------------------------|-------------------------------|
E|------------------------------|-------------------------------|

  F               G9             C

E|20b22-r20-17------------------|-----------------------------------|
B|-------------20-20b22-20-17h20|20-17-17h20p17---------------------|
G|------------------------------|---------------19-17-17-19-17-19b21|
D|------------------------------|-----------------------------------|
A|------------------------------|-----------------------------------|
E|------------------------------|-----------------------------------|

  Am            C               F

E|---------------------17-19-20|19-17-------17-------------------|
B|20------------------17-------|------20b22----r20-17------------|
G|---r19-17-19-17-16-17--------|----------------------20-19-17---|
D|-----------------------------|-------------------------------19|
A|-------------------rake------|---------------------------------|
E|-----------------------------|---------------------------------|
 
  Am             C                 G              D

E|--------------------------------|--------------------------------------|
B|17-------------17---------------|------------------------------------13|
G|---20-19-17-------20-19-17----17|------12-------------------------12---|
D|------------19-------------19---|12s14----12-12-12-------10-12s14------|
A|--------------------------------|------------------10h12---------------|
E|--------------------------------|--------------------------------------|

  F             C               Gsus4    G
                                4:37
E|------------------15-15------|-----------------------|
B|---------13-15b17-------15b17|15---------------------|
G|12-14-14---------------------|-----------------------|
D|-----------------------------|-----------------------|
A|-----------------------------|-----------------5-7-7-|
E|-----------------------------|-----------5-7-8-------|

  Am        C              G              D

E|------------------------|-------------------------------|
B|------------------------|--------------------10-12-13-12|
G|------------------------|9-9h10p9-----------11----------|
D|--------------10-9-10-12|---------12b14-12-12-----------|
A|7-7s10-10-12------------|------------------rake---------|
E|------------------------|-------------------------------|

  F              C                  D

E|---------------------------------|--------20b22-20b22-20b22|
B|10-------------------------------|-------------------------|
G|---12b14-12-9-------12-----------|-------------------------|
D|--------------12b14----(14)r12-10|12-----------------------|
A|---------------------------------|-------------------------|
E|---------------------------------|-------------------------|

  F                 G9               C

E|20b22-(22)r20-17------------------|------------17-19---------------|
B|-----------------20-20b22-20-17-20|20-17-20b22-------20b22-20-17-20|
G|----------------------------------|--------------------------------|
D|----------------------------------|--------------------------------|
A|----------------------------------|--------------------------------|
E|----------------------------------|--------------------------------|

  Am     C       F

E|--------------|--------------------------------------------|
B|20-17-20--17trill20--17-------------17-20-20b22r20---------|
G|--------------|---------20-19-17---------------------------|
D|--------------|------------------19------------------------|
A|--------------|--------------------------------------------|
E|--------------|--------------------------------------------|

  Am                         C

E|------17-------17-------17-------17-------17--------------|
B|20b22----20b22----20b22----20b22----20b22----20b22--------|
G|----------------------------------------------------------|
D|----------------------------------------------------------|
A|----------------------------------------------------------|
E|----------------------------------------------------------|

  G                              D

E|---------17-17----------------17-20--17h20p17h20p17h20p17-20b22|
B|20b22r20-------20b22-(22)r20-----------------------------------|
G|---------------------------------------------------------------|
D|---------------------------------------------------------------|
A|---------------------------------------------------------------|
E|---------------------------------------------------------------|

  F              C

E|20b22-20-19-17-------20---------------------|
B|---------------20b22----r20-17-------10-----|
G|-------------------------------19b21----(21)|
D|--------------------------------------------|
A|--------------------------------------------|
E|--------------------------------------------|

  Gsus4                G

E|-------------------------------------------17-19|
B|----------------------------17-20b22-20b22------|
G|r19-17-16-17-16----16-17-19---------------------|
D|----------------19------------------------------|
A|------------------------------------------------|
E|------------------------------------------------|

  Am               C                             G               D

E|-----17-19----17------------------------------|-------------------------------|
B|--20-------20----18-20-17-18----17------------|-------------------------------|
G|-----------------------------19----17-19-16-17|---16--------------------------|
D|----------------------------------------------|19----17-19---------------17-19|
A|----------------------------------------------|------------s17----s19-17------|
E|----------------------------------------------|----------------20-------------|

  F               C                 D

E|17------------------------------------------------------|
B|---20-17--------17----------------20b22---20b22----20b22|
G|---------19-17--19b21-19-17-----------------------------|
D|----------------------------19-17-----------------------|
A|--------------------------------------------------------|
E|--------------------------------------------------------|
comments
We did not receive enough feedback on this tab! Please rate:
print report bad tab
1 2 3 4 5
1 comment total.
0 reply
ayreon77 wrote on February 27 2014, 09:35 am

this looks a great solo, even without a guitar you can follow it, great job

I want to post or [tab]
guest
You may want to rate the tab now too:
select rating
Please do not post tabs as comments. Select "correction" instead!