Oops, an error
Loading. Please wait.

Changing Tab

version 1
version 1

Whole song

1,863 views 1 this week
no commentswrite comment
1 2 3 4 5
please rate
add to favorites
launch autoscroll
font size
0
reset
how to read this tab
guitar tuner
Tab Pro tools
  • play this tab
  • loop segment
  • change instrument
  • show fretboard
  • metronome
×
Best way to learn
"Changing"
Autoscroll
slow
fast
+/-
esc
set tempo
stop
Contributor
Difficulty
novice
-------------------------------------------------------------------------------
                             Changing - Witch 
         Band Website:      http://www.teepeerecords.com/bands/witch/
-------------------------------------------------------------------------------
Tabbed by: FMDC (Fantasia Mushroom Death Cycle)


Tuning: Standizzle

This band kicks ass and I don't know why there aren't any tabs out for them
yet. 

I still can't figure out the intro, so this tab starts about 43 seconds into
the song.



  main riff: (4/4 timing)
e|--------------------------------|       |-------------------------------|
B|--------------------------------|       |second guitar comes in on 3rd  |
G|--------------------------------|       |repeat. same riff but an octave|
D|----9---9h10p9--8---------------| x4    |higher                         |
A|-------------------10---10p9----|       |-------------------------------|
E|0---------------------0---------|
 
  1...    2...    3...    4...


  verse: (3/4 timing)
e|----------------------|
B|----------------------|
G|--9--x-99--xx---------|
D|--9--x-99--xx---------| x10
A|--7--x-77--xx-------8-|
E|--0--x-00--xx--7h10---|
 
    1...  2...   3...

e|--------------------------------|     
B|--------------------------------|   
G|--------------------------------|   
D|----9---9h10p9--8---------------| x4
A|-------------------10---10p9----|   
E|0---------------------0---------|


e|----------------------|
B|----------------------|
G|--9--x-99--xx---------|
D|--9--x-99--xx---------| x10
A|--7--x-77--xx-------8-|
E|--0--x-00--xx--7h10---|


  bridge:
e|-----------------------------------------------------------------------|
B|---------------------------------------------------------8p7-----------|
G|-9--9--9--9--9----9--12-12-12-12----11-11-11-11-11----9------9---------|
D|-9--9--9--9--9----9--12-12-12-12----11-11-11-11-11-------------9p8-9---| x4
A|-7--7--7--7--7----7--10-10-10-10----9--9--9--9--9----------------------|
E|-----------------------------------------------------------------------|


  solo #1:
e|----------------------------------------------|  --|
B|----------------------------------------------|    |
G|--9~----8h9p8-/12~----11h12p11-\8~----9-------|    |
D|-----------------------------------------9----| x2 |
A|----------------------------------------------|    |
E|----------------------------------------------|    |
                                                     |
e|--------------------------------------|            |
B|--12~---11h12p11-\8~------------------|            |
G|------------------------8~----9-------|            |
D|---------------------------------9----|            | x2
A|--------------------------------------|            |
E|--------------------------------------|            |
                                                     |
e|----------------------------------------------|    |
B|----------------------------------------------|    |
G|--9~----8h9p8-/12~----11h12p11-\8~----9-------|    |
D|-----------------------------------------9----|    |
A|----------------------------------------------|    |
E|----------------------------------------------|  --|



  
e|--------------------------------|     
B|--------------------------------|   
G|--------------------------------|   
D|----9---9h10p9--8---------------| x4
A|-------------------10---10p9----|   
E|0---------------------0---------|


e|----------------------|
B|----------------------|
G|--9--x-99--xx---------|
D|--9--x-99--xx---------| x10
A|--7--x-77--xx-------8-|
E|--0--x-00--xx--7h10---|

  Still trying to figure out the rest of the song, and there is a second guitar
  which plays throughout almost the entire song, so I've got a lot of tabbing
  ahead of me...

  All you other Witch fans feel free to help, and let me know where I messed up


| /  slide up
| \  slide down
| h  hammer-on
| p  pull-off
| ~  vibrato
| +  harmonic
| x  Mute note


woo! my first tab!
===============================================================================
comments
We did not receive enough feedback on this tab! Please rate:
print report bad tab
1 2 3 4 5
I want to post or [tab]
guest
You may want to rate the tab now too:
select rating
Please do not post tabs as comments. Select "correction" instead!