Oops, an error
Loading. Please wait.

Isadora Tab

version 1
version 1

Intro

2,624 views 3 this week
3 commentsread comments
1 2 3 4 5
x 3
add to favorites
launch autoscroll
font size
0
reset
how to read this tab
guitar tuner
Autoscroll
slow
fast
+/-
esc
set tempo
stop
Help us to improve Ultimate-Guitar.com Take our survey!
×
Author
Difficulty
novice
Jesus_Mancini@yahoo.com

I'm almost positive this is it for the main riff, saw we had no Witch tabs, wanted an 
one, only took me a couple seconds to figure it out. We need some Witch tabs up in here. 
is easy to figure out, just listen to it.


-----------------------------|
---3-------------------------|
--0-0------0-2---2h4p2-------|
-4---4-4--4-----------5-4----|
2-----2--3-------------------|
-----------------------------|
Suggest correction
Give kudos to tab author, rate the tab!
1 2 3 4 5
comments
print report bad tab
3 comments total.
0 reply
Tab Guy 52 Mar 19, 2008 08:36 PM

*****, but try open g instead of the 5-4 part, sounds a bit closer to the cd version.Still a great tab.

0 reply
bilsonblinky 10 Jul 01, 2012 02:44 AM

I think it should be

-----------------------------|
---30-------------------------|
--0--0------0-2---2h4p2-------|
-4----4-4--4-----------4h5----|
2------2--3-------------------|
-----------------------------|

0 reply
bilsonblinky 10 Jul 01, 2012 02:49 AM


------------------------------|
---3p0------------------------|
--0---0------0-2---2h4p2------|
-4-----4---4-----------4h5----|
2-------2-3-------------------|
------------------------------|

guest
You may want to rate the tab now too:
select rating
Wanna post a correction for this tab? Suggest correction