Oops, an error
Loading. Please wait.

Sarang Ah Nae Ge Oh Gi Man Hae Tab

1,354 views 3 this week
no commentswrite comment
1 2 3 4 5
3 more votes to show rating
add to favorites
launch autoscroll
font size
0
reset
how to read this tab
guitar tuner
Autoscroll
slow
fast
+/-
esc
set tempo
stop
Help us to improve Ultimate-Guitar.com Take our survey!
×
Author
   title- SARANG AH NAE GE OH GI MAN HAE
   THIS IS MY 1ST TAB.. I HOPE THAT YOU'LL LIKE IT!!
   YOU CAN EMAIL ME IF THERE IS SOMETHING WRONG IN MY TAB..
   ANY COMMENTS ARE ALWAYS WELCOME.. ^-^




e ----------------------------------------------------------------------|
b 5-5-5-6--8-8---------------------------------------------6-5-3--------|
g -------------7-7--5-5-5-7--9-9----------------------------------5s7-7-|
d -------------------------------9-9  7-7-7-9--10-10--------------------|
a ---------------------------------------------------10-10--------------|
E ----------------------------------------------------------------------|

e ----------------------------7-8---------------------------------------|
b 5-5-5-6--8-8--------------5-----8-5-3------------6-5-3----------------|
g -------------7-7--5-5-5-7--------------5 5s7-5----------5s7-7---------|
d-----------------------------------------------------------------------|
a ----------------------------------------------------------------------|
E ----------------------------------------------------------------------|

e -----------------------------------------------------8-7-7------7-7h8-|
b --------10-10-10-10--8-6-5-3-3-3s5-5--------10-10-10-------10-10------|
g 7s9-12-------------------------------7s9-12---------------------------|
d ----------------------------------------------------------------------|
a ----------------------------------------------------------------------|
E ----------------------------------------------------------------------|

e ----------------8-7-7-7--------7-7h8--8-8-8----------------8---------|
b -------10-10-10---------8-8-10 -------------10-10-6-6-6-10---6s8-----|
g 7s9-12---------------------------------------------------------------|
d ---------------------------------------------------------------------|
a ---------------------------------------------------------------------|
E ---------------------------------------------------------------------|

      C        g        am     em        f        c        f       g
e -------0 -------- -------0 ------  --------- ------0 --------- ------
b -------- ------0- ------1- ---0--  -------1- ------- --------1 ------
g ----0--- -------- ----2--- ---0--  --------- ----0-- ------2-- ---0--(2x)
d --2----- ----0--- --2----- ---2--  ----3---- --2---- ----3---- ---0--
a 3------- --2----- 0------- ---2--  --3------ 3------ --3------ ---2--
E -------- 3------- -------- ---0--  1-------- ------- 1-------- ---3--


                               SOLO

e -------------3--------------------------------------------------------|
b ------5--3-5----------------5--------------5-5h6-5-3------------------|
g ---------------5s7-5--5-4-5----------5h7-5-----------5---4------------|
d -3s5---------------------------4s5-7-------------------7--------------|
a ----------------------------------------------------------------------|
E ----------------------------------------------------------------------|

e -------------------------------------------------------12-12s13-12-10-8-8-|
b ----5-5--8-8-10-12-12s13-12-13-8-----10-12-13-13s15-13--------------------|
g 4s5------------------------------7s9--------------------------------------|
d --------------------------------------------------------------------------|
a --------------------------------------------------------------------------|
E --------------------------------------------------------------------------|

e -----------------------------------------------------8-7-7-------7-7h8-|
b -------10-10-10-10--8-6-5-3-3-3s5-5---------10-10-10-------10-10-------|
g 7s9-12-------------------------------7s9-12----------------------------|
d -----------------------------------------------------------------------|
a -----------------------------------------------------------------------|
E -----------------------------------------------------------------------|

e ----------------8-7-7-7---------7-7s8--8-8-8----------------8---------|
b -------10-10-10---------8-8-10---------------10-10-6-6-6-10----6s8----|
g 7s9-12----------------------------------------------------------------|
d ----------------------------------------------------------------------|
a ----------------------------------------------------------------------|
E ----------------------------------------------------------------------|

e ----------------------------------------------------------------------|
b 5-5-5-6--8-8----------------------------------------------6-5-3-------|
g -------------7-7--5-5-5-7--9-9----------------------------------5s7-7-|
d -------------------------------9-9--7-7-7-9--10-10--------------------|
a ---------------------------------------------------10-10--------------|
E ----------------------------------------------------------------------|

e ----------------------------7-8---------------------------------------|
b 5-5-5-6--8-8--------------5-----8-5-3-------------------6-5-3---------|
g -------------7-7--5-5-5-7-------------5-5--5s7-5---------------5s7-5--|
d -------------------------------------------------5-5------------------|
a ----------------------------------------------------------------------|
E ----------------------------------------------------------------------|

e ----------------------------------------------------------------------|
b --------8-8-----------------------------------------------------------|
g 7s9-9-9-----7-7--5-5-7--9-9-------------------------------------------|
d ----------------------------9-9---7-7-7-9-10-10-----------------------|
a -------------------------------------------------10-10----------------|

e ------------------------------------------7-8-------------------------|
b --------------5-5-5-6--8-8--------------5-----8-5-3-------------------|
g 10-9-7-5s7-7---------------7-7--5-5-5-7-------------5-5--5s7-5--------|
d ----------------------------------------------------------------5-5---|
a ----------------------------------------------------------------------|
E ----------------------------------------------------------------------|

e ------------------------------------------------------------------------|
b 6-5-3------------------------------6--5--3------------------------------|
g ------5s7-5-------5s7-5---------------------5s7------------5------------|
d ------------------------5-5---------------------------------------------|
a ------------------------------------------------------------------------|
E ------------------------------------------------------------------------|
E
Suggest correction
Give kudos to tab author, rate the tab!
1 2 3 4 5
comments
print report bad tab
guest
You may want to rate the tab now too:
select rating
Wanna post a correction for this tab? Suggest correction