Oops, an error
Loading. Please wait.

Seer Tab

27,927 views 33 this week
9 commentsread comments
1 2 3 4 5
x 10
add to favorites
launch autoscroll
font size
0
reset
how to read this tab
guitar tuner
Autoscroll
slow
fast
+/-
esc
set tempo
stop
Help us to improve Ultimate-Guitar.com Take our survey!
×
Difficulty
novice
Heavy, and I mean HEAVY distortion is needed to even sound close to the recording. Even 
a few fuzz pedals if necessary.

[Intro] Heavy,not too slow.
e|----------------------------------------------------------------------|
B|----------------------------------------------------------------------|
G|----------------------------2s4--7--4s2--------------2s4-4------------|
D|-----------------------------------------5h7p5-------------7-5--2-5-2-|
A|0----2-2--------------0-------------------------0---------------------|
E|0-0-------5-3--0-3-0--0-0-----------------------0-0-------------------|

e|--------------------------------|
B|--------------------------------|
G|-----2s4--7--4s2----------------|
D|------------------5h7p5~~~~~~~~-|
A|-0------------------------------|
E|-0-0----------------------------|

Slightly faster: about 80-90bpm
e|-------------------------------------------------|
B|-------------------------------------------------|\
G|-----2s4-4--------------------2s4--7--4s2--------| X4
D|-----------7-5--2-5-2----------------------5h7p5-|/
A|0----------------------0-------------------------|
E|0-0--------------------0-0-----------------------|

e|--------------------||
B|--------------------||
G|9--9-9--9-9--9-9--9-o| \
D|9--9-9--9-9--9-9--9-o|  X6
A|7--7-7--7-7--7-7--7-|| /
E|0--0-0--0-0--0-0--0-||

  X X X X X X X X X  <-palm mute
e|------------------------------||
B|------------------------------||
G|9-9-9-9-9-9-9-9-9--------3----o| \
D|9-9-9-9-9-9-9-9-9--------3----o|  X4
A|7-7-7-7-7-7-7-7-7--0-3-5-1----|| /
E|0-0-0-0-0-0-0-0-0--0-3-5-0----||

e|-------|-------------------------------------------------|
B|-------|-------------------------------------------------|\
G|-------|-----2s4-4--------------------2s4--7--4s2--------| X4
D|-------|-----------7-5--2-5-2----------------------5h7p5-|/
A|-------|0----------------------0-------------------------|
E|-s13s0-|0-0--------------------0-0-----------------------|

e|--------------------||
B|--------------------||
G|9--9-9--9-9--9-9--9-o| \
D|9--9-9--9-9--9-9--9-o|  X6
A|7--7-7--7-7--7-7--7-|| /
E|0--0-0--0-0--0-0--0-||

  X X X X X X X X X
e|------------------------------||
B|------------------------------||
G|9-9-9-9-9-9-9-9-9--------3----o| \
D|9-9-9-9-9-9-9-9-9--------3----o|  X4
A|7-7-7-7-7-7-7-7-7--0-3-5-1----|| /
E|0-0-0-0-0-0-0-0-0--0-3-5-0----||

e|-------|-------------------------------------------------|
B|-------|-------------------------------------------------|\
G|-------|-----2s4-4--------------------2s4--7--4s2--------| X4
D|-------|-----------7-5--2-5-2----------------------5h7p5-|/
A|-------|0----------------------0-------------------------|
E|-s13s0-|0-0--------------------0-0-----------------------|

I haven't worked out the solo yet, come around later for it though....

e|-------|-------------------------------------------------|-------|
B|-------|-------------------------------------------------|\------|
G|-------|-----2s4-4--------------------2s4--7--4s2--------|-X4----|
D|-------|-----------7-5--2-5-2----------------------5h7p5-|/------|
A|-------|0----------------------0-------------------------|-------|
E|-s13s0-|0-0--------------------0-0-----------------------|-0~~~~-|

-bass solo- (with some bowing over top of it)

  X9  X3  X9  X9          <-numbers of times chord is played (in steady triplets to the beat)
e|----------------------||
B|----------------------|| \
G|9---8---7---3---2-2---o|  X9 (gradually get louder bit by bit as you play this, a VERY long crescendo)
D|9---8---7---3---2-2---o| /
A|7---6---5---1---0-0---||
E|0---0---0---0-------0-||

-pause-

e|-------------------------------------------------|
B|-------------------------------------------------|\
G|-----2s4-4--------------------2s4--7--4s2--------| X4
D|-----------7-5--2-5-2----------------------5h7p5-|/
A|0----------------------0-------------------------|
E|0-0--------------------0-0-----------------------|

e|--------------------||
B|--------------------||
G|9--9-9--9-9--9-9--9-o| \
D|9--9-9--9-9--9-9--9-o|  X6
A|7--7-7--7-7--7-7--7-|| /
E|0--0-0--0-0--0-0--0-||

  X X X X X X X X X
e|------------------------------||
B|------------------------------||
G|9-9-9-9-9-9-9-9-9--------3----o| \
D|9-9-9-9-9-9-9-9-9--------3----o|  X4
A|7-7-7-7-7-7-7-7-7--0-3-5-1----|| /
E|0-0-0-0-0-0-0-0-0--0-3-5-0----||

-solos until the end-

hope you enjoyed it, so sorry, I'll try and repost the solos later!

************************************

| h  Hammer-on
| p  Pull-off
| ~  Vibrato
| \  Slide down
| /  Slide up
| X  Palm Mute

************************************
Suggest correction
comments
print report bad tab
9 comments total. Showing first comments.
+1 reply
aaagetalifeaaa 10 Apr 13, 2007 10:34 AM

this song is so awesome man, i skate to it almost every day, thanks for posten it

-1 reply
adom 47 Mar 13, 2008 05:29 PM

yo so glad you got this tab up here man its a awesome song! i have a diff version of the intro, its just one i made up, same notes as yours just different positions, i think its easier, for me at least.

(/) Slide Up (\) Slide Down (h) Hammer On (p) Pull Off (b) Bend (r) Release (v) Vibrato

E|-------------------------------------------------
B|-----------------------------3-------------------
G|--2/4--2--0-----0-------2/4-----4\2--0--2--0-----
D|-------------2-----2--------------------------2--
A|-------------------------------------------------
E|-------------------------------------------------

0 reply
adom 47 Mar 13, 2008 05:37 PM

shit i left out the bass notes sorry.. here is the fix

(/) Slide Up (\) Slide Down (h) Hammer On (p) Pull Off (b) Bend (r) Release (v) Vibrato

E|-----------------------------------------------------------
B|---------------------------------------3-------------------
G|--------2/4--2--0-----0-----------2/4-----4\2--0--2--0-----
D|-------------------2-----2------------------------------2--
A|--0-------------------------0------------------------------
E|--0--0----------------------0--0---------------------------

guest
You may want to rate the tab now too:
select rating
Wanna post a correction for this tab? Suggest correction