Oops, an error
Loading. Please wait.

Resurrection Tab

360 views 1 this week
no commentswrite comment
1 2 3 4 5
please rate
add to favorites
launch autoscroll
font size
0
reset
how to read this tab
guitar tuner
Autoscroll
slow
fast
+/-
esc
set tempo
stop
Help us to improve Ultimate-Guitar.com Take our survey!
×
                             WITCHERY - RESURRECTION
                        From the Album DEAD, HOT & READY
                       Copyright 1999 NECROPOLIS RECORDS
                    
                             Version 1.0 - JUNE 2000

Transcribed by: Haris Durakovic

For Questions, Comments, Newest Version, or Corrections contact
Haris Durakovic: at foreverlorn@gmx.de

Check Out Death Warp, With More Transcriptions On It:
 http://tiger.towson.edu/~dalvis1

Join the death/black tab emailing list by emailing 

..  - palm mute          /  - slide up to
 \  - slide down to      ~  - vibrato
 h  - hammer on          b  - bend
 p  - pull off            Suffixes for bend
                          ph - pinch harmonic
                           f - full bend    h - half bend
*  - see comment           r - release      t - tap bend
X  - percussion mute       ~ - vibrato bend
@  - slight palm mute     () - ghost note, sustained note



Witchery - Resurrection



Intro riff 
|-------------------------------------------|
|-------------------------------------------|
|-------------------------------------------|
|-5--------------------5--------------------|
|---7-5h7----------------7-5h7--------------|
|-----0-----0000000000-----0-----0000000000-|
            ..........           ..........

Riff 1
|---------------------------------------------------------------|
|---------------------------------------------------------------|
|-------------------------------------4----6----4---------------|
|-5-----------5-----------5-----------5----7----5---5-----------|
|---7-5h7-------7-5h7-------7-5h7---------------------7-5h7-----|
|-----0----00-----0----00-----0----00---00---00---0-----0----00-|
           ..          ..          ..   ..   ..   .          ..


|-------------------------------------|
|-------------------------------------|
|-----------------------4----6--------|
|-5---4-----5-----------5----7----7-6-|
|---7-5--55---7-5h7---------------5-4-|
|---------------0----00---00---00-----|
         ..          ..   ..   ..

Riff 2
|--------------------------------------------------|
|-5----5----5----5-------------5----5----5---------|
|-6----6----6----6-------------6----6----6---------|
|-6----6----6----6----65566----6----6----6----6776-|
|-4-44-4-44-4-44-4-44-43344-44-4-44-4-44-4-44-4554-|
|--------------------------------------------------|
    ..   ..   ..   ..       ..   ..   ..   ..



Chorus
|-------------------------------------------------------------------|
|-------------------------------------------------------------------|
|-5-5-5-7--2----5-4-5-4-5-5-5-7--2----5-4-5-4-5-5-5-7--5----5-4-5-4-|
|-5-5-5-7--2----7-5-5-5-5-5-5-7--2----7-5-5-5-5-5-5-7--5----7-5-5-5-|
|-3-3-3-5--0-00---------3-3-3-5--0-00---------3-3-3-5--3-33---------|
|-------------------------------------------------------------------|
             ..                    ..                    ..

|-----------------------|
|-----------------------|
|-5-5-5-7--2----5---4---|
|-5-5-5-7--2----5---5-5-|
|-3-3-3-5--0-00---0---5-|
|---------------------3-|
             ..   .   



Riff 3                     Riff 4    Riff 5
|-------------------------|---------|-----------------------|
|-------------------------|---------|-----------------------|
|-----2---2-------2-------|-6-4-2-6-|-2--2-2-2-2-4--4-4-4-4-|
|---4---4---4---4---4-5---|-6-4-2-6-|-0--0-0-0-0-0--0-0-0-0-|
|-----------------------4-|-4-2-0-4-|-0--0-0-0-0-0--0-0-0-0-|
|-2-----------2-----------|-------4-|-----------------------|
  . . . . . . . . . . . . 

Riff 6
|-----------------------------------------------------------------------------|
|-----------------------------------------------------------------------------|
|-----------------------------------------------------------------------------|
|--------4----------4----------4---5-----------4----------4----------4---5--3-|
|----4----------4----------4---------------4----------4----------4------------|
|-2----3---3-2----3---3-2----3---3-3----2----3---3-2----3---3-2----3---3-3--1-|

Rhythm on solo (not sure about this)
|-------------------------------------------------------------------|
|-------------------------------------------------------------------|
|-----0---0-------0-----------0---0-------0-------4-44444-4444------|
|---2---2---2---2---2-3-----2---2---2---2---2-3---0-00000-0000-5--3-|
|-----------------------2-----------------------2-2-22222-2222-5--3-|
|-0-----------0-----------0-----------0------------------------3--1-|
  . . . . . . . . . . . . . . . . . . . . . . . .

|-------------------------|
|-------------------------|
|-------------------------|
|-5----7----5----7--------|
|-5----7----5----7--------|
|---00---00---00---000000-|
    ..   ..   ..   ......
Suggest correction
What's this?
You can suggest a correction to this tab. Community and Mods will review your correction and vote to approve or reject it.
comments
We did not receive enough feedback on this tab! Please rate:
print report bad tab
1 2 3 4 5
guest
You may want to rate the tab now too:
select rating
Please do not post tabs as comments. Select "correction" instead!