Oops, an error
Loading. Please wait.

Intro Tab

31 views 1 this week
no commentswrite comment
1 2 3 4 5
3 more votes to show rating
add to favorites
launch autoscroll
font size
0
reset
how to read this tab
guitar tuner
Autoscroll
slow
fast
+/-
esc
set tempo
stop
Help us to improve Ultimate-Guitar.com Take our survey!
×
Author
Difficulty
novice
[Intro]


[Part 1] (x2)

e|---------------------0-----0--|
B|-----0-------0-------0-----0--|
G|----2-2-----2-2-----0-----0---|
D|---3---3---3---3---2-----2----|
A|--3-----3-3-----3-2-----2-----|
E|-1-------1-------0-----0------|


[Part 2] (x2)

e|-----0-------0-------0-------------------(12)------------|
B|----0-0-----0-0-----0-0------------------(12)-(7)-(5)----|
G|---0---0---0---0---0---0-----0-----0----------(7)-(5)----|
D|--9-----9-4-----4-2-----0---5----------------------------|
A|-7-------5-------3---------3------9----------------------|
E|--------------------------3---/7-7---0-------------------|

[Part 1] (x2)
[Part 2] (x2)


************************************

| ()  natural harmonic
| /    Slide up

************************************
Suggest correction
Give kudos to tab author, rate the tab!
1 2 3 4 5
comments
print report bad tab
guest
You may want to rate the tab now too:
select rating
Wanna post a correction for this tab? Suggest correction