Oops, an error
Loading. Please wait.

Abaddons Horde Tab

1,682 views 1 this week
4 commentsread comments
1 2 3 4 5
please rate
add to favorites
launch autoscroll
font size
0
reset
how to read this tab
guitar tuner
Autoscroll
slow
fast
+/-
esc
set tempo
stop
Help us to improve Ultimate-Guitar.com Take our survey!
×
-------------------------------------------------------------------------------
                             Abaddon's Horde - With Blood Comes Cleansing
-------------------------------------------------------------------------------
Tabbed by:  Darian Mazloomi
Email: aworldwheretruthisfrail@hotmail.com

Tuning: Drop A

0:00-0:20

B|-----------------|----------|
F#-----------------|----------|
D|-----------------|----------|
A|-3-2-3-2-0-1-3-2-|-3-2-1-2-2|
E|-3-2-3-2-0-1-3-2-|-3-2-1-2-2|
A|-3-2-3-2-0-1-3-2-|-3-2-1-2-2|
   . . . . . . . .       . .

0:20-0:34; 2:09-2:31

B|------------------|-----------|
F#------------------|-----------|
D|------------------|-----------|
A|-4-3--------------|-3-2-1-2-2-|
E|-4-3-----6--------|-3-2-1-2-2-|
A|-4-3-4466-6664477-|-3-2-1-2-2-|
       .... .......       . .

0:35-1:05

tremolo picked
B|-----------|---------------------------------|
F#-----------|---------------------------------|
D|-----------|---------------------------------|
A|-----------|-1-1-1-1-4-4-4-4-7-7-7-7-6-6-4-4-|
E|-----------|-1-1-1-1-4-4-4-4-7-7-7-7-6-6-4-4-|
A|-1-4-7-6-4-|-1-1-1-1-4-4-4-4-7-7-7-7-6-6-4-4-|


1:05-1:48
                        last time
B|----------|----------|------------------------|
F#----------|----------|------------------------|
D|----------|----------|------------------------|
A|----------|-0000-0-0-|-0000-0-1-1-1-7-77-6-66-|
E|----------|-0000-0-0-|-0000-0-1-1-1-7-77-6-66-|
A|-1111-1-1-|-1111-1-1-|-1111-1-1-1-1-7-77-6-66-|
              .... . .   .... .

1:48-2:09

B|--------------------------------------------------------|
F#--------------------------------------------------------|
D|--------------------------------------------------------|
A|----1-111-111-111-111-111---------1-111-111-111-111-111-|
E|----1-111-111-111-111-111-6-------1-111-111-111-111-111-|
A|-6b-1-111-111-111-111-111--6-7-6b-1-111-111-111-111-111-|
      . ... ... ... ... ...         . ... ... ... ... ...
B|--------------------------------------------------------|
F#--------------------------------------------------------|
D|--------------------------------------------------------|
A|---------1-111-111-111-111-111------6-66-4-44-7-77-6-66-|
E|-6-------1-111-111-111-111-111-6----6-66-4-44-7-77-6-66-|
A|--6-7-6b-1-111-111-111-111-111--6-7-6-66-4-44-7-77-6-66-|
           . ... ... ... ... ...      

2:31-3:05

B|----------|----------|
F#----------|----------|
D|----------|----------|
A|----------|-0000-0-0-|
E|----------|-0000-0-0-|
A|-1111-1-1-|-1111-1-1-|
              .... . .

| /  slide up
| \  slide down
| h  hammer-on
| b  bend
| ~  vibrato
| +  harmonic
| .  palm mute
===============================================================================
http://www.youtube.com/watch?v=rMhttIE0fBs
Suggest correction
Give kudos to tab author, rate the tab!
1 2 3 4 5
comments
print report bad tab
4 comments total. Showing first comments.
0 reply
surgicaltools 263 wrote on June 30 2009, 02:14 pm

last part of intro chug is 4 3 not 3 2

0 reply
surgicaltools 263 wrote on June 30 2009, 02:14 pm

i mean the part that comes right beofre the intro and is repeated multiple times in the second riff

0 reply
surgicaltools 263 wrote on June 30 2009, 02:15 pm

after* haha

guest
You may want to rate the tab now too:
select rating
Wanna post a correction for this tab? Suggest correction