Oops, an error
Loading. Please wait.

Damnation Tab

version 1
version 1

Whole song

Interactive

1,119 views 1 this week
no commentswrite comment
1 2 3 4 5
please rate
add to favorites
launch autoscroll
font size
0
reset
how to read this tab
guitar tuner
Autoscroll
slow
fast
+/-
esc
set tempo
stop
Help us to improve Ultimate-Guitar.com Take our survey!
×
Guitar tuned to drop Bb/A#   ~ = let it ring
First intro part
|----------------------------------|
|----------------------------------|
|----------------------------------|
|----------------------------------| X5
|-------7-------5-------7----------|
|-5-7-8---5-7-8---5-7-8---8877557--|

The part after the first part leading into the breakdown
|----------------------------------|
|----------------------------------|
|----------------------------------|
|----------------------------------|0~
|----------------------------------|0~
|-8-7-5-7-8-7-5-7-8-7-5-4-5-7-5-4--|0~

before the breakdown
|----------------------------------|
|----------------------------------|
|----------------------------------|
|----------------------------------| X2
|1-00-0-00000-0-00000--------------|
|1-00-0-00000-0-00000--------------|

THEN YOUR PAIN!!!!!!
|----------------------------------|
|----------------------------------|
|----------------------------------|
|0-00-0-00000-0-00000--------------| X4
|0-00-0-00000-0-00000--------------|
|1-11-1-11111-1-11111--------------|

|----------------------------------|
|----------------------------------|
|----------------------------------|
|----------------------------------| X4
|1-00-0-00000-0-00000--------------|
|1-00-0-00000-0-00000--------------|

|----------------------------------|
|----------------------------------|
|----------------------------------|
|----------------------------------| X6
|------3---2-----1-----------------|
|0-3-6--6-3--5-2---4-1-------------|

|----------------------------------------|
|----------------------------------------|
|----------------------------------------|
|----------------------------------------| X4
|------3---2-----1-----------------------|
|0-3-6--6-3--5-2---4-1------------- <----|Palm mute this string only

|----------------------------------|
|----------------------------------|
|----------------------------------|
|----------------------------------| X2
|------3---2-----1-----------------|
|0-3-6--6-3--5-2---4-1-------------| No palm mute

|----------------------------------|
|----------------------------------|
|----------------------------------|
|----------------------------------| X4
|1-00-0-00000-0-00000--------------|
|1-00-0-00000-0-00000--------------|

|----------------------------------|
|----------------------------------|
|----------------------------------|
|----------------------------------| X5
|-------7-------5-------7----------|
|-5-7-8---5-7-8---5-7-8---8877557--|

|----------------------------------|
|----------------------------------|
|----------------------------------|
|----------------------------------| X1
|----------------------------------|
|-8-7-5-7-8-7-5-7-8-7-5-4-5-7-5-4--|
Suggest correction
Give kudos to tab author, rate the tab!
1 2 3 4 5
comments
print report bad tab
guest
You may want to rate the tab now too:
select rating
Please do not post tabs as comments. Select "correction" instead!