Oops, an error
Loading. Please wait.

Fearless Before Opposition Bass Tab

version 1
version 1

Whole song

Interactive

649 views 1 this week
no commentswrite comment
1 2 3 4 5
please rate
add to favorites
launch autoscroll
font size
0
reset
guitar tuner
Autoscroll
slow
fast
+/-
esc
set tempo
stop
Help us to improve Ultimate-Guitar.com Take our survey!
×
Author
Difficulty
Tuning
novice
C G C F A D
Artist: With Blood Comes Cleansing
Song: 'Fearless Before Opposition'
Album: Golgotha

F|------------------------------|
C|------------------------------|
G|-----3-6-5--------------------|
C|-000--------000-8-000-7-------|x8

F|------------------------------|
C|------------------------------|
G|------------------------------|
C|-3~---------------------------|

F|------------------------------|
C|------------------------------|
G|------------------------------|
C|-3~-6-3-2~-5-2----------------|x4

F|------------------------------|
C|------------------------------|
G|------------------------------|
C|-3~--1~--2~-------------------|

F|----------------------------------------|
C|---2-3-5--3-2-0-2----2-3-5--------------|
G|-0-----------------3---------3-2-4------|
C|----------------------------1-----------| x4

F|----------------------------------|
C|----------------------------------|
G|----------------------------------|
C|-0-3-2-5-1-4-0-1--0-3-2-5-1-4-0-3-|x4

F|------------------------------|
C|------------------------------|
G|------------------------------|
C|-12\--------------------------|

F|----------------------------------|
C|----------------------------------|
G|----------------------------------|
C|-0-3-2-5-1-4-0-1--0-3-2-5-1-4-0-3-|x2

Two measure rest

F|------------------------------|
C|------------------------------|
G|-----3-6-5--------------------|
C|-000--------000-8-000-7-------|x8

F|------------------------------| >
C|------------------------------| >
G|------------------------------| >
C|-00000-00000--------0000------| >

F|------------------------------| >
C|------------------------------| >
G|------------------------------| >
C|-00000-00000---0000-0000------| > x8 (on last four times, let notes ring)
Suggest correction
What's this?
You can suggest a correction to this tab. Community and Mods will review your correction and vote to approve or reject it.
comments
We did not receive enough feedback on this tab! Please rate:
print report bad tab
1 2 3 4 5
guest
You may want to rate the tab now too:
select rating
Please do not post tabs as comments. Select "correction" instead!