Oops, an error
Loading. Please wait.

Fearless Before Opposition Tab

version 1
version 1

Whole song

Interactive

823 views 1 this week
no commentswrite comment
1 2 3 4 5
please rate
add to favorites
launch autoscroll
font size
0
reset
how to read this tab
guitar tuner
Tab Pro tools
  • play this tab
  • loop segment
  • change instrument
  • show fretboard
  • metronome
×
Best way to learn
"Fearless Before Opposition"
Autoscroll
slow
fast
+/-
esc
set tempo
stop
Contributor
Tuning
C G C F A D
. = palm mute
* = pinch harmonic
b = bend
\ = fret board slide


This is the Drop C version, the version from the Gologtha CD
----------------------------------------
I'm 100% positive this is 100% correct 
If you spot any errors, e-mail me
xcaiusxcassiusx@yahoo.com

Me = www.myspace.com/xcaiusxcassiusxeatskids
The band = www.myspace.com/withbloodcomescleansing


D|-----------|
A|-----------|
F|-----------|
c|-----------|
G|-33665-1-0-|
C|-----------| x8

D|----------|
A|----------|
F|----------|
c|----------|
G|----------|
C|-(363252)-|

D|----------|
A|----------|
F|----------|
c|-3~632~52-|
G|-3~632~52-|
C|-3~632~52-| x5

D|--------------------------------|  \
A|--------------------------------|   \
F|--------------------------------|    \
c|-000777888TENTENTEN888777555777-|     \
G|--------------------------------|      \
C|--------------------------------|       \
                                          / x5 (only play 4* the first time)
D|--------------------------|            /
A|--------------------------|           /
F|--------------------------|          /
c|-000222333555-000333222---|         /
G|-----------------------4*-|        /
C|--------------------------|       /      

D|------------|
A|------------|
F|------------|
c|-0325130----|
G|-0325130-4*-|
C|-0325130----| x10 (4th,6th,8th, and 10th time change 4* on G to 3* on C)
   .......

D|--------------------||-------------------|
A|--------------------||-------------------|
F|--------------------||-------------------|
c|-\0-3-2-5-1-3-0-----||-0-3-2-5-1-3-0-----|
G|-\0-3-2-5-1-3-0-4*b-||-0-3-2-2-1-3-0-----| 
C|-\0-3-2-5-1-3-0-----||-0-3-2-5-1-3-0-3*b-| x2 (only play \ the first time)
    . . . . . . .        . . . . . . .

D|-----------|
A|-----------|
F|-----------|
c|-----------|
G|-33665-1-0-|
C|-----------| x10

(WE HAVE TO FIGHT!)

D|-------------|
A|-------------|
F|-------------|
c|-00000-00000-|
G|-00000-00000-|
C|-00000-00000-|

D|---------------------|         \
A|---------------------|          \
F|---------------------|           \
c|-00000-00000---00-00-|            \
G|-00000-00000---00-00-|             \
C|-00000-00000---00-00-|              \
                                       \ x2
D|-----------------------------|       /
A|-----------------------------|      /
F|-----------------------------|     /
c|-00000-00000---0-00---0-00---|    /
G|-00000-00000---0-004*-0-004*-|   /
C|-00000-00000---0-00---0-00---|  /

D|----------------------|
A|----------------------|
F|----------------------|
c|-00000-00000----00-00-|
G|-00000-00000----00-00-|
C|-00000-000003b*~00-00-|

D|-----------------------------|
A|-----------------------------|
F|-----------------------------|
c|-00000-00000---0-00---0-00---|
G|-00000-00000---0-004*-0-004*-|
C|-00000-00000---0-00---0-00---|

D|----------------------|
A|----------------------|
F|----------------------|
c|-00000-00000--\-00-00-|
G|-00000-00000--\-00-00-|
C|-00000-00000--\-00-00-|

D|-----------------------------|
A|-----------------------------|
F|-----------------------------|
c|-00000-00000---0-00---0-00---|
G|-00000-00000---0-004*-0-004*-|
C|-00000-00000---0-00---0-00---|

D|---------------------|         \
A|---------------------|          \
F|---------------------|           \
c|-00000-00000~~~00-00-|            \
G|-00000-00000~~~00-00-|             \
C|-00000-00000~~~00-00-|              \  x2
                                      /
D|--------------------------|        /
A|--------------------------|       /
F|--------------------------|      /
c|-00000-00000~~~0-00--0-00-|     /
G|-00000-00000~~~0-00--0-00-|    /
C|-00000-00000~~~0-00--0-00-|   /

D|---|
A|---|
F|---|
C|-0-|
G|-0-|
C|-0-|
comments
We did not receive enough feedback on this tab! Please rate:
print report bad tab
1 2 3 4 5
I want to post or [tab]
guest
You may want to rate the tab now too:
select rating
Please do not post tabs as comments. Select "correction" instead!