Oops, an error
Loading. Please wait.

Fearless Before Opposition Tab

version 2
version 2

Whole song

Interactive

247 views 1 this week
no commentswrite comment
1 2 3 4 5
3 more votes to show rating
add to favorites
launch autoscroll
font size
0
reset
how to read this tab
guitar tuner
Autoscroll
slow
fast
+/-
esc
set tempo
stop
Help us to improve Ultimate-Guitar.com Take our survey!
×
Author
Difficulty
Tuning
intermediate
C G C F A D
-------------------------------------------------------------------------------
           Fearless Before Opposition - With Blood Comes Cleansing
-------------------------------------------------------------------------------
Tabbed by: Jake Stephens
Email: leadguitarfreak5590@hotmail.com

Tuning: Drop C

            
D|--------------------------|
A|--------------------------|
F|--------------------------|
C|--------------------------|x4
G|----333666555-----1-----0-|
C|-0------------000---000---|
   .            ...   ...

D|--------------------------------------------------|
A|--------------------------------------------------|
F|--------------------------------------------------|
C|--------------------------------------------------|x3
G|--------------------------------------------------|
C|-333333666333222222555222333333666333222222555222-|
   

   Chorus piece   (10's not 1's and 0's)
D|-----------------------------------------------------|
A|-----------------------------------------------------|
F|-----------------------------------------------------|
C|----777888101010888777555777---222333555---333222----|x5
G|-555------------------------333---------111------444-|
C|-----------------------------------------------------|
   
  
D|----------------------------------|
A|----------------------------------|
F|----------------------------------|
C|-0-3-2-5-1-4-0-*--0-3-2-5-1-4-0---|x5
G|-0-3-2-5-1-4-0-3--0-3-2-5-1-4-0-*-|
C|-0-3-2-5-1-4-0----0-3-2-5-1-4-0-3-|
   . . . . . . .    . . . . . . .

   Then slow it down...
D|-------------------------------------------------|
A|-------------------------------------------------|
F|-------------------------------------------------|
C|-0--3--2--5--1--4--0--*---0--3--2--5--1--4--0----|x2
G|-0--3--2--5--1--4--0--3---0--3--2--5--1--4--0--*-|
C|-0--3--2--5--1--4--0------0--3--2--5--1--4--0--3-|
   
  Repeat first piece again, then play the breakdown:

D|------------------------------|
A|------------------------------|
F|------------------------------|
C|-00000--00000-WEHAVETOFIGHT!!-|
G|-00000--00000-----------------|
C|-00000--00000-----------------|
   .....  .....              

D|--------------------------------------------------------|
A|--------------------------------------------------------|
F|--------------------------------------------------------|
C|-00000--00000------00-00--00000--00000----00-0-*-00-0-*-|
G|-00000--00000------00-00--00000--00000----00-0-3-00-0-3-|
C|-00000--00000------00-00--00000--00000----00-0---00-0---|
   .....  .....      .. ..  .....  .....    .. .   .. .

| *  pinch harmonic
| .  palm-mute
===========================================================================

Suggest correction
Give kudos to tab author, rate the tab!
1 2 3 4 5
comments
print report bad tab
guest
You may want to rate the tab now too:
select rating
Wanna post a correction for this tab? Suggest correction