Oops, an error
Loading. Please wait.

Hematidrosis Tab

version 1
version 1

Whole song

Interactive

3,220 views 1 this week
4 commentsread comments
1 2 3 4 5
x 5
add to favorites
×
Save as Personal and add changes to this tab that will be seen only by you. Learn more ›
×
You can save this tab as Personal to edit and correct it or add notes. All changes will be seen only by you. Learn more »
save as personal
new!
launch autoscroll
font size
0
reset
how to read this tab
guitar tuner
Autoscroll
slow
fast
+/-
esc
set tempo
stop
Difficulty
Tuning
intermediate
C G C F A D
HEMATIDROSIS - With Blood Comes Cleansing
Tuning: Drop C (CGCFAD)

*DRUM FILL*

RIFF A (0:02-0:18)
D|-----------------------------------------------------------|
A|-----------------------------------------------------------|
F|-----------------------------------------------------------|
C|-----------------------------------------------------------| x4
G|----------------------------------111---------111-----111--|
C|--111-444-333-111-333-111-000-000-----000-000-----000------|
    ... ... ... ... ... ... ... ...     ... ...     ...

RIFF B (0:19-0:27)
D|------------------------------|
A|------------------------------|
F|-------------------------3----|
C|-------------------------3-4--| x2
G|--6”-5”-2”-1”--6”-5”-2”--1-4--|
C|---------------------------4--|

RIFF A (0:28-0:43)
D|-----------------------------------------------------------|
A|-----------------------------------------------------------|
F|-----------------------------------------------------------|
C|-----------------------------------------------------------| x4
G|----------------------------------111---------111-----111--|
C|--111-444-333-111-333-111-000-000-----000-000-----000------|
    ... ... ... ... ... ... ... ...     ... ...     ...

RIFF C (0:44-1:05) x4                                     finish
D|----------------------------------------------||---------------------|
A|----------------------------------------------||---------------------|
F|----------------------------------------------||---------------------|
C|---------------------------2-1-0--2-1-0--2-1--||--2-1-0--2-1-0--1-0--|
G|-----------7”--------------2-1-0--2-1-0--2-1--||--2-1-0--2-1-0--1-0--|
C|--5”-7”-8”----8”-7”-5”-7”--2-1-0--2-1-0--2-1--||--2-1-0--2-1-0--1-0--|
                             . . .  . . .  . .      . . .  . . .  . .

*RISE UP!!!*

RIFF D (1:06-1:13)
D|---------------------------------------------------|
A|---------------------------------------------------|
F|---------------------------------------------------|
C|--0-0-0--0--0-0-0-0--0--0-0-0-0--0-0-0-0--0-0-0-0--|
G|--0-0-0--0--0-0-0-0--0--0-0-0-0--0-0-0-0--0-0-0-0--| x2
C|--0-0-0--0--0-0-0-0--0--0-0-0-0--0-0-0-0--0-0-0-0--|
    . . .  .  . . . .  .  . . . .  . . . .  . . . .

RIFF E (1:14-1:18)
D|--------------------------------------------|
A|--------------------------------------------|
F|--------------------------------------------|
C|---------0-0--0--0-0-0-0--0-0-0-0--0-0-0-0--|
G|--1------0-0--0--0-0-0-0--0-0-0-0--0-0-0-0--|
C|----2-1--0-0--0--0-0-0-0--0-0-0-0--0-0-0-0--|
           . .  .  . . . .  . . . .  . . . . 

RIFF D (1:18-1:22)
D|---------------------------------------------------|
A|---------------------------------------------------|
F|---------------------------------------------------|
C|--0-0-0--0--0-0-0-0--0--0-0-0-0--0-0-0-0--0-0-0-0--|
G|--0-0-0--0--0-0-0-0--0--0-0-0-0--0-0-0-0--0-0-0-0--|
C|--0-0-0--0--0-0-0-0--0--0-0-0-0--0-0-0-0--0-0-0-0--|
    . . .  .  . . . .  .  . . . .  . . . .  . . . .

RIFF E x3 (1:23-1:34) then (1:35-1:38)
D|----------------------------------|
A|----------------------------------|
F|----------------------------------|
C|---------0-0--2-1-0--2-1-0--1-0---|
G|--1------0-0--2-1-0--2-1-0--1-0---|
C|----2-1--0-0--2-1-0--2-1-0--1-0---|
           . .  . . .  . . .  . .

RIFF F (1:39-1:50)
D|------------------------------------|
A|------------------------------------|
F|------------------------------------|
C|------------------------------------|
G|------------------------------------| x3
C|--8-5-0-8-5-0-8-5--7-4-0-7-4-0-7-4--|

RIFF G (1:51-1:57)
D|--------------------------------------------------------------------|
A|--------------------------------------------------------------------|
F|--------------------------------------------------------------------|
C|--------------------------------------------------------------------|
G|--------------------------------------------------------------------| x2
C|--8-8-5-5-0-0-8-8-5-5-0-0-8-8-5-5--7-7-4-4-0-0-7-7-4-4-0-0-7-7-4-4--|

RIFF H (1:58-2:27) x4      finish
D|----------------------||-------|
A|----------------------||-------|
F|----------------------||-------|
C|----------------------||--0-3--|
G|----------------------||--0-3--|
C|--8”-5”-0”--7”-4”-0”--||--0-3--|
                            . .
RIFF A x2 (2:28-2:37) 
D|-----------------------------------------------------------|
A|-----------------------------------------------------------|
F|-----------------------------------------------------------|
C|-----------------------------------------------------------|
G|----------------------------------111---------111-----111--|
C|--111-444-333-111-333-111-000-000-----000-000-----000------|
    ... ... ... ... ... ... ... ...     ... ...     ...

RIFF C x2 plus Finish (2:38-2:49)
D|----------------------------------------------||---------------------|
A|----------------------------------------------||---------------------|
F|----------------------------------------------||---------------------|
C|---------------------------2-1-0--2-1-0--2-1--||--2-1-0--2-1-0--1-0--|
G|-----------7”--------------2-1-0--2-1-0--2-1--||--2-1-0--2-1-0--1-0--|
C|--5”-7”-8”----8”-7”-5”-7”--2-1-0--2-1-0--2-1--||--2-1-0--2-1-0--1-0--|
                             . . .  . . .  . .      . . .  . . .  . .

*Hemorrhaging from the pores of His body!!!*

RIFF I x4 (2:50-3:11)    finish
D|---------------------||-----|
A|---------------------||-----|
F|---------------------||-----|
C|--2-1-0--2-1-0--1-0--||--2--|
G|--2-1-0--2-1-0--1-0--||--2--|
C|--2-1-0--2-1-0--1-0--||--2--|
    . . .  . . .  . .      .

************************************

| .  Palm Mute

************************************
Suggest correction
comments
print report bad tab
4 comments total. Showing first comments.
0 reply
Xanatos thnx JH 186 Jun 12, 2008 09:22 AM

Great job on the tab, man. the second part of the intro seems low, though. could it be like this--
C------------------------------9-8---
G-9--8--6-----5---/-9--8--6----9-8---
C------------------------------9-8---

And Riff F seems like this:


low C--8-4-0-8-4-0-8-0--7-3-0-7-3-0-7-0--

Very good job though, far better then mine. very good.

+1 reply
gofusiesbass09 128 Jan 05, 2009 11:25 AM

xanatos that does sound right either. that would be the harmony.

everythings perfect. 5+. the other guitar pro tab sux. this is good. keep it up

+1 reply
JasonNeymeyer 103 Mar 23, 2009 07:29 AM

Very nice, except one thing. In Riffs D & E, instead of basic open power chords, it sounds like they're using these chords:

D|---------------------------------------------------|
A|---------------------------------------------------|
F|---------------------------------------------------|
C|--0-0-0--0--0-0-0-0--0--0-0-0-0--0-0-0-0--0-0-0-0--|
G|--0-0-0--0--0-0-0-0--0--0-0-0-0--0-0-0-0--0-0-0-0--| x2
C|--1-1-1--1--1-1-1-1--1--1-1-1-1--1-1-1-1--1-1-1-1--|
. . . . . . . . . . . . . . . . . . . . .

I know it might seem a little nit picky, but it sounds like that to me...

guest
Wanna post a correction for this tab? Suggest correction