Oops, an error
Loading. Please wait.

My Help Tab

version 1
version 1

Whole song

Interactive

1,296 views 4 this week
no commentswrite comment
1 2 3 4 5
excellent!
x 3
add to favorites
launch autoscroll
font size
0
reset
how to read this tab
guitar tuner
Tab Pro tools
  • play this tab
  • loop segment
  • change instrument
  • show fretboard
  • metronome
×
Best way to learn
"My Help"
Autoscroll
slow
fast
+/-
esc
set tempo
stop
Contributor
Tuning
C G C F A D
-------------------------------------------------------------------------------
                             MY HELP - WITH BLOOD COMES CLEANSING
-------------------------------------------------------------------------------

Tuning: CGCFAD

   intro
e|---------------------------------------------------------------------------|
B|--------------------------------------------------10-11-10-8-6---8-6-5-5---|
G|--------(tremolo pick)--------------------------7--------------5-----------|
D|---7-8-7-5-3---5-3-2-2----7-8-7-5-3---5-3-2-2------------------------------|
A|-5-----------3----------5-----------3--------------------------------------|
E|---------------------------------------------------------------------------|

e|-------------------------|-------------------------||----------------------|
B|--10-11-10-8-6---8-6-5-5-|-------------------------||----------------------|
G|7--------------5---------|-------------------------||--------play 4x-------|
D|-------------------------|-------------------------||----------------------|
A|-------------------------|0000-0000----0000-0000-3*||0000-0000---0000-0000-|
E|-------------------------|0000-0000----0000-0000---||0000-0000---0000-0000-|
                            .... ....    .... ....           let ring
e|-------------------------||------------------------------------------------|
B|-------------------------||------------------------------------------------|
G|-------------------------||------------------------------------------------|
D|-3p2p0-5p3p0-7p5p0-5p3p0-||---7-8-7-5-3---5-3-2-2---7-8-7-5-3---5-3-2-2----|
A|-------------------------||-5-----------3---------5-----------3------------|
E|-------------------------||------------------------------------------------|

e|---------------------------------------------------------------------------|
B|---10-11-10-8-6---8-6-5-5----10-11-10-8-6---8-6-5-5------------------------|
G|-7--------------5----------7--------------5--------------------------------|
D|---------------------------------------------------------------------------|
A|---------------------------------------------------------------------------|
E|---------------------------------------------------------------------------|

e||--------------------------------------------------------------------------|
B||--------------------------------------------------------------------------|
G||--------------------------------------------------------------------------|
D||5---------------3---------------1---------------3333-5555-----------------|
A||5---------------3---------------1---------------3333-5555-----------------|
E||5-000-000-000-0-3-000-000-000-0-1-000-000-000-0-3333-5555-----------------|
     ... ... ... .   ... ... ... .   ... ... ... .
e|-----------------------------------------------------------------||--------|
B|-----------play twice--------------------------------------------||--------|
G|----------------------------------------------------(tens-v)-----||--------|
D|-5---------------7---------------8-------------1010101010101010--||--------|
A|-5---------------7---------------8-------------1010101010101010--||--------|
E|-5-000-000-000-0-7-000-000-000-0-8-000-000-000-1010101010101010--||--------|

e|----------------------------------------------------------------------------|
B|--BREAKDOWN-----------------------------------------------------------------|
G|----------------------------------------------------------------------------|
D|------------------------------0---------------------------------------------|
A|-0-2-3-0-3-6-2-4--0-2-3-0-3-6-0----------0-2-3-0-3-6-2-4---0-2-3-0-3-6-3*---|
E|-0-2-3-0-3-6-2-4--0-2-3-0-3-6-0----------0-2-3-0-3-6-2-4---0-2-3-0-3-6---3--|
   . . . . . . . .  . . . . . .            . . . . . . . .   . . . . . .
e|--------------------------------------||-----------------------------------|
B|--------------------------------------||------(tremolo pick)---------------|
G|--------------------------------------||-------play twice------------------|
D|--------------------------------------||---7-8-7-5-3---5-3-2-2-------------|
A|-0-2-3-0-3-6-2-4--0-2-3-0-3-6-5-3-2-0-||-5-----------3---------------------|
E|-0-2-3-0-3-6-2-4--0-2-3-0-3-6-5-3-2-0-||-----------------------------------|

e|---------------------------------------------------------------------------|
B|---10-11-10-8-6---8-6-5-5----10-11-10-8-6----8-6-5-5-----------------------|
G|--7--------------5---------7---------------5-------------------------------|
D|---------------------------------------------------------------------------|
A|---------------------------------------------------------------------------|
E|---------------------------------------------------------------------------|
comments
We did not receive enough feedback on this tab! Please rate:
print report bad tab
1 2 3 4 5
I want to post or [tab]
guest
You may want to rate the tab now too:
select rating
Please do not post tabs as comments. Select "correction" instead!