Oops, an error
Loading. Please wait.

In My Dreams intro tab

version 1
version 1

Intro

1,091 views 3 this week
1 commentread comment
1 2 3 4 5
x 3
add to favorites
×
Save as Personal and add changes to this tab that will be seen only by you. Learn more ›
×
You can save this tab as Personal to edit and correct it or add notes. All changes will be seen only by you. Learn more »
launch autoscroll
font size
0
reset
how to read this tab
guitar tuner
edit
Autoscroll
slow
fast
+/-
esc
set tempo
stop
Difficulty
intermediate
Artist: With Broken Wings
Title : In my dreams
Album : Tonight Is The Night My Heart Stops

tabbed by: Nick
e-mail: a_wintersrose_foryou@hotmail.com

intro: guitar I (clean)
e|------------------------------------------------------------------|
B|------------------------------------------------------------------|
G|--------5----------5-3-3h5p3-2-3----------2---------------2-------|
D|----3----------3----------------------3-----3---3-----3-----3---3-|
A|--0---0------0---0----------------1-1---1-----1---1-1---1-----1---|
D|0----------0------------------------------------------------------|

e|--------------------------------------|x2
b|--------------------------------------|
G|--------------------------2-----------|
D|----3---3h5p3-2-3-----3-----3h5p3-2-3-|
A|3-3---3-----------3-3---3-------------|
D|--------------------------------------|

intro guitar II (w.dis)
e|-------------|
b|-------------|(come in on the second time of guitar I)
G|-----3---5---|
D|0~---3---5---|
A|0~---1---3---|
D|0~-----------|

e|-------------------------------------------------|
b|-------------------------------------------------|
G|------12/14-14--10--9----------------------------|
D|0~----------------------0-0--0-------------------|
A|0~----10/12-12---8--7---0-0--0-------------------|
D|0~----------------------0-0--0-------------------|
 |                        . .                      |
e|-------------------------------------------------|
b|-------------------------------------------------|
G|------------------------9-9--10-----2----------5-|
D|---------------------------------------5p2-3p2---|
A|------------------------7-7---8------------------|
D|-------------------------------------------------|
                          . .

thats just the intro at the moment but i will do the rest a little later on, for the 
time, enjoy:)

            
            
Suggest correction
Creating personal tab
Creating personal tab
You can edit any tab online and save it as your Personal.

You can edit, replace or remove any tab part or add personal notes – all changes will be seen only by you.

Personal tabs can be accessed anytime from any device, even offline.
Learn more »
Give kudos to tab author, rate the tab!
1 2 3 4 5
comments
print report bad tab
1 comment total.
0 reply
Famousmanbearpi 10 Aug 03, 2007 03:09 PM

the beginning should go like this
intro: guitar I (clean)
e|---------------------------------------------------|
B|---------------------------------------------------|
G|--------5----------5-----3----2------2h3p2---2-----|
D|----3----------3-----------------------------------|
A|--0---0------0---0---------------------------------|
D|0----------0-----------0---0-----0---------0-------|

and thats the way the cookie crumbles (thats how the first bar u made should be played)

im pretty sure the 2nd one was kind of off as well (or maybe i just wasnt playing it righT?)

guest
Wanna post a correction for this tab? Suggest correction