Oops, an error
Loading. Please wait.

Archers tab

706 views 63 this week
no commentswrite comment
1 2 3 4 5
3 more votes to show rating
add to favorites
×
Save as Personal and add changes to this tab that will be seen only by you. Learn more ›
×
You can save this tab as Personal to edit and correct it or add notes. All changes will be seen only by you. Learn more »
launch autoscroll
font size
0
reset
how to read this tab
guitar tuner
edit
Autoscroll
slow
fast
+/-
esc
set tempo
stop
Archers - With Confidence
Tuning: Drop D (DADGBe)
Guitar 1 - Inigo Del Carmen
Guitar 2 - Luke Rockets
Check out my guitar cover on YouTube!: https://www.youtube.com/edit?o=U&video_id=fLY4KKO-5dc

[Intro] 
Guitar 1 only
e|----------------------------------3x-|-------------------|
B|-------------------------------------|-------------------|
G|-5-5-5-------------------------------|-5-5-5-------------|
D|-5-5-5-------------------------------|-5-5-5-------3-3---|
A|-3-3-3-3-3-3-3-3-3-3-3-3-3-3-3-3-5-5-|-3-3-3-3-3-3-3-3---|
D|-------2-2-2-3-3-3-3-3-3-2-2-3-3-5-5-|-------2-2-2-3-3---|

[Verse]
Guitar 1
e|----------------------------------3x-|-----------------------------------------------------------------|
B|-------------------------------------|-----------------------------------------------------------------|
G|-5-5-5-------------------------------|-----------------------------------------------------------------|
D|-5-5-5-------------------------------|-----------------------------------------------------------------|
A|-3-3-3-3-3-3-3-3-3-3-3-3-3-3-3-3-5-5-|-3-3-3---------------------------3-3-3-----------------------3-3-|
D|-------2-2-2-3-3-3-3-3-3-2-2-3-3-5-5-|-------2-2-2-3-3-3-3-3-3-2-2-3-3-------2-2-2-3-3-3-3-3-3-2-2-3-3-|

Guitar 2
e|----------------------------------3x-|--------------------------------------------|
B|-------------------------------------|--------------------------------------------|
G|-5-5-5-------------------------------|--------------------------------------------|
D|-5-5-5-2-2-2-3-3-3-3-3-3-2-2-3-3-5-5-|----------(silence)---------------------3-3-|
A|-3-3-3-3-3-3-3-3-3-3-3-3-3-3-3-3-5-5-|----------------------------------------3-3-|
D|-------2-2-2-3-3-3-3-3-3-2-2-3-3-5-5-|----------------------------------------3-3-|

[Chorus]
Guitar 1
e|-------------------------------------------0--------------------------------------------------------|
B|----------------------------------------------------------------------------3-----3-----------------|
G|-2~-------5~--------------0~-------------5---5-2~-------5~----------------5-----5-----5---2~--------|
D|---------------------------------------7--------------------------------5-----5-----5---x-2~--x-2~--|
A|----------------------------------------------------------------------------------------x-0~--x-3~--|
D|----------------------------------------------------------------------------------------x-----x-2~--|
                                         * *                              * *   * *   * * 
Guitar 2
e|--------------------------------------------------------------------------------------|
B|--------------------------------------------------------------------------------------|
G|----------5~----5~-5~-5~-----------------------------5~----5~-5~-5~----------2~-------|
D|-3~--3-3~-5~----5~-5~-5~--5~-------0~-------3~--3-3~-5~----5~-5~-5~--5-----x-2~--x-2~-|
A|-3~--3-3~-3~----3~-3~-3~--5~-------0~-------3~--3-3~-3~----3~-3~-3~--5--x7-x-0~--x-3~-|
D|-3~--3-3~-----------------5~-------0~-------3~--3-3~-----------------5-----x-----x-2~-|

[Verse 2]
Guitar 1
e|----------------------------------5x-|--------4x-|------------------------------|
B|-------------------------------------|-----------|------------------------------|
G|-------------------------------------|-5~\-------|------------------------------|
D|-5-5-5-------------------------------|-5~\---3~\-|-2-3-3-5----------------------|
A|-3-3-3-3-3-3-3-3-3-3-3-3-3-3-3-3-5-5-|-3~\---3~\-|-3-3-3-5----------------------|
D|-------2-2-2-3-3-3-3-3-3-2-2-3-3-5-5-|-------3~\-|-2-3-3-5----------------------|
   * * * * * * * * * * * * * * * * * * 
Guitar 2
e|--------------|-----------------------------------------------------------------------------------|
B|--------------|-----------------------------------------------5~\-------------5~\-----------------|
G|--------------|-5~\--------------5~\---2~\--(5.9)-(5.9)-(5.9)-------2~\-------------2~\---5-7-----|
D|--------------|-5~\---3~\----5h7-5~\--------------------------5~\---------5h7-5~\-----------------|
A|--------------|-3~\---3~\--------3~\--------------------------3~\-------------3~\---------3-5-----|
D|--------------|-------3~\-15\------------------------------------------15\--------------------15\-|

[Chorus 2]
Guitar 1
e|-------------------------------------------0-------------------------------------------------------|
B|----------------------------------------------------------------------------3-----3----------------|
G|-2~-------5~--------------0~-------------5---5-2~-------5~----------------5-----5-----5---2~-------|
D|---------------------------------------7--------------------------------5-----5-----5---x-2~--x-2~-|
A|----------------------------------------------------------------------------------------x-0~--x-3~-|
D|----------------------------------------------------------------------------------------x-----x-2~-|
                                         * *                              * *   * *   * * 
Guitar 2
e|--------------------------------------------------------------------------------------|
B|--------------------------------------------------------------------------------------|
G|----------5~----5~-5~-5~-----------------------------5~----5~-5~-5~----------2~-------|
D|-3~--3-3~-5~----5~-5~-5~--5~-------0~-------3~--3-3~-5~----5~-5~-5~--5-----x-2~--x-2~-|
A|-3~--3-3~-3~----3~-3~-3~--5~-------0~-------3~--3-3~-3~----3~-3~-3~--5--x7-x-0~--x-3~-|
D|-3~--3-3~-----------------5~-------0~-------3~--3-3~-----------------5-----x-----x-2~-|

Guitar 1 (1:31)
e|-------------------------------------------0-------------------------------------------------------|
B|----------------------------------------------------------------------------3-----3----------------|
G|-2~-------5~--------------0~-------------5---5-2~-------5~----------------5-----5-----5---2~-------|
D|---------------------------------------7--------------------------------5-----5-----5---x-2~--x-2~-|
A|----------------------------------------------------------------------------------------x-0~--x-3~-|
D|----------------------------------------------------------------------------------------x-----x-2~-|
                                         * *                              * *   * *   * * 
Guitar 2 (1:31)
e|--------------------------------------------------------------------------------------|
B|--------------------------------------------------------------------------------------|
G|----------5~----5~-5~-5~-----------------------------5~----5~-5~-5~-------------------|
D|-3~--3-3~-5~----5~-5~-5~--5~-------0~-------3~--3-3~-5~----5~-5~-5~--5~---------------|
A|-3~--3-3~-3~----3~-3~-3~--5~-------0~-------3~--3-3~-3~----3~-3~-3~--5~---------------|
D|-3~--3-3~-----------------5~-------0~-------3~--3-3~-----------------5~---------------|

Guitar 1
e|------8------8----------8-----8---8------------------------8-10---0------|
B|----------------------------------------12h13--12h13---------------------| *** - on the second time,
G|---10-----10-----10--10----10--10-----10--------------10-------10---10---|       stop playing at
D|-10-----10-----10--10----10---------10-------10-----10--10------------10-|       this note
A|----------------------------------------------------------------****-----|
D|----------------------------------------------------------------------2x-|
   * *    * *    * * * *   * *   *    * *      *  *    * * *      *    * * 

Guitar 2 (1:31)
e|--------------------------------------------------------------------------------------|
B|--------------------------------------------------------------------------------------|
G|----------5~----5~-5~-5~-----------------------------5~----5~-5~-5~-------------------|
D|-3~--3-3~-5~----5~-5~-5~--5~-------0~-------3~--3-3~-5~----5~-5~-5~--5~---------------|
A|-3~--3-3~-3~----3~-3~-3~--5~-------0~-------3~--3-3~-3~----3~-3~-3~--5~---------------|
D|-3~--3-3~-----------------5~-------0~-------3~--3-3~-----------------5~---------------|

[Bridge]
Guitar 1
e|---------------------------------------------------------------------------------------|
B|---------------------------------------------------------------------------------------|
G|---------------------------------------------------------------------------------------|
D|-3~---0~-----5~---0~-----3~---0~-----5~-----------5-----------------------5------------|
A|-3~---0~-----5~---0~-----3~---0~-----5~-----3--x8-3--x8-5--x8-0--x8-3--x8-3--x16-5--x8-|
D|-3~---0~-----5~---0~-----3~---0~-----5~-----3-----------5-----0-----3------------5-----|
                                              *     *     *     *     *     *     *     *
Guitar 2
e|------------------------------------------------------------------------------------------|
B|------------------------------------------------------------------------------------------|
G|------------------------------------------------------------------------------------------|
D|-0h2~---2~----0h2------0---0---0---0---0---0---0-----0~---0h2p0---2--x8-0-0-0-------------|
A|------------------3~-----3---3---3---2---2---2---2/3------------3-------------3--x8-2--x6-|
D|------------------------------------------------------------------------------------------|
                     V Back to Distortion
e|-------------------------------------------------------------------|
B|-------------------------------------------------------------------|
G|-------------------12--x64 (or however many times)-----------------|
D|---0---0---0---0---------------------------------------------------|
A|-3---3---3---3---3--------------------------------------------------|
D|-------------------------------------------------------------------|
                     *
[Final Chorus]

Guitar 1
e|---------------------------------------------------------------------|
B|---------------------------------------------------------------------|
G|------------------------------------------------------------2~-------|
D|------(silence)-------------------------------------------x-2~--x-2~-|
A|----------------------------------------------------------x-0~--x-3~-|
D|----------------------------------------------------------x-----x-2~-|

Guitar 2
e|---------------------------------------------------------------------|
B|---------------------------------------------------------------------|
G|------------------------------------------------------------2~-------|
D|------(silence)-------------------------------------------x-2~--x-2~-|
A|----------------------------------------------------------x-0~--x-3~-|
D|----------------------------------------------------------x-----x-2~-|

Guitar 1
e|------8------8----------8-----8---8------------------------8-10---0------|
B|----------------------------------------12h13--12h13---------------------| *** - on the second time,
G|---10-----10-----10--10----10--10-----10--------------10-------10---10---|       stop playing at
D|-10-----10-----10--10----10---------10-------10-----10--10------------10-|       this note
A|----------------------------------------------------------------****-----|
D|----------------------------------------------------------------------2x-|
   * *    * *    * * * *   * *   *    * *      *      * * *      *    * * 
Guitar 2
e|--------------------------------------------------------------------------------------|
B|--------------------------------------------------------------------------------------|
G|----------5~----5~-5~-5~-----------------------------5~----5~-5~-5~-------------------|
D|-3~--3-3~-5~----5~-5~-5~--5~-------0~-------3~--3-3~-5~----5~-5~-5~--5----------------|
A|-3~--3-3~-3~----3~-3~-3~--5~-------0~-------3~--3-3~-3~----3~-3~-3~--5--x8------------|
D|-3~--3-3~-----------------5~-------0~-------3~--3-3~-----------------5----------------|

Guitar 1
e|------8------8----------8-----8---8-----------------------------------|
B|----------------------------------------3-----3-----------------------| *** - on the second time,
G|---10-----10-----10--10----10--10-----5-----5-----5-------x-x-x-x-----|       stop playing at
D|-10-----10-----10--10----10---------5-----5-----5---5~----x-x-x-x-----|       this note
A|------------------------------------***-------------------------------|
D|-------------------------------------------------------------------2x-|
   * *    * *    * * * *   * *   *    * *   * *   * *      
Guitar 2
e|---------------------------------------------------------------------------------------|
B|---------------------------------------------------------------------------------------|
G|----------5~----5~-5~-5~-----------------------------5~----5~-5~-5~---------2~---------|
D|-3~--3-3~-5~----5~-5~-5~--5~-------0~-------3~--3-3~-5~----5~-5~-5~---------2~------2~-|
A|-3~--3-3~-3~----3~-3~-3~--5~-------0~-------3~--3-3~-3~----3~-3~-3~-------x-0~----x-3~-|
D|-3~--3-3~-----------------5~-------0~-------3~--3-3~----------------------x-------x-2~-|


************************************

| x  Dead note
| ~  Vibrato
| h  Hammer-on
| \  Slide down
| p  Pull-off
| /  Slide up
| (#) - natural harmonic
| * - palm mute

************************************
Suggest correction
Creating personal tab
Creating personal tab
You can edit any tab online and save it as your Personal.

You can edit, replace or remove any tab part or add personal notes – all changes will be seen only by you.

Personal tabs can be accessed anytime from any device, even offline.
Learn more »
Give kudos to tab author, rate the tab!
1 2 3 4 5
comments
print report bad tab
guest
You may want to rate the tab now too:
select rating
Wanna post a correction for this tab? Suggest correction