Oops, an error
Loading. Please wait.

Gravity tab

313 views 18 this week
no commentswrite comment
1 2 3 4 5
2 more votes to show rating
add to favorites
×
Save as Personal and add changes to this tab that will be seen only by you. Learn more ›
×
You can save this tab as Personal to edit and correct it or add notes. All changes will be seen only by you. Learn more »
launch autoscroll
font size
0
reset
how to read this tab
guitar tuner
edit
Autoscroll
slow
fast
+/-
esc
set tempo
stop
[Intro]
Guitar 1
e|---2---2---2---2---2---2---2---2---2--|
B|---0---0---0---0---0---0---0---0---0--|
G|--------------------------------------| (2x)
D|-----------------2-----------2--------|
A|--------------------------------------|
E|-4-------2----------------------------|


[Verse 1] 
"Even when the tour's done... I'll keep it here with me."

Guitar 1
e|---2---2---2---2---2---2---2---2---2--|
B|---0---0---0---0---0---0---0---0---0--|
G|--------------------------------------| (3x) (band comes in after 2x)
D|-----------------2-----------2--------|
A|--------------------------------------|
E|-4-------2----------------------------|

e|---2---2---2---2---2---2---2---2---2-2---|
B|---0---0---0---0---0---0---0---0---0-0---|
G|-----------------------------------------|
D|-----------------2-----------2-----------|
A|-----------------------------------------|
E|-4-------2-------------------------------|

[Break]
Guitar 1
e|---2---2---2---2---2---2---2---2---2--|
B|---0---0---0---0---0---0---0---0---0--|
G|--------------------------------------| (2x)
D|-----------------2-----------2--------|
A|--------------------------------------|
E|-4-------2----------------------------|

Guitar 2
e|-11\7----------------------------11\7----------------------------------|
B|--------7/11----------------------------7/11---------------------------|
G|--------------11---8h9r8---------------------11---8h9r8---8/11---------|
D|-----------------------------------------------------------------------|
A|-----------------------------------------------------------------------|
E|-----------------------------------------------------------------------|


[Verse 2] 
"Could've been a tradesman... I'd crave normality."

Guitar 1
e|---2---2---2---2---2---2---2---2---2--|
B|---0---0---0---0---0---0---0---0---0--|
G|--------------------------------------| (3x) 
D|-----------------2-----------2--------|
A|--------------------------------------|
E|-4-------2----------------------------|

e|---2---2---2---2---2---2---2---2---2-----2-----2----|
B|---0---0---0---0---0---0---0---0---0---0------------|
G|-------------------------------------------4--------|
D|-----------------2-----------2-------2-------2------|
A|----------------------------------------------------|
E|-4-------2------------------------------------------|


[Chorus] 
"I fight through... watch me let go."
    G#m               E                B                F#
e|---------------------------------------------------------------------------|
B|---------------------------------------------------------------------------|
G|-----------------------------------4-4-4-4-4-4-4-4-------------------------| (2x)
D|-6-6-6-6-6-6-6-6--2-2-2-2-2-2-2-2--4-4-4-4-4-4-4-4--4-4-4-4-4-4-4-4--------|
A|-6-6-6-6-6-6-6-6--2-2-2-2-2-2-2-2--2-2-2-2-2-2-2-2--4-4-4-4-4-4-4-4--------|
E|-4-4-4-4-4-4-4-4--0-0-0-0-0-0-0-0-------------------2-2-2-2-2-2-2-2--------|


[Break]
Guitar 1
e|---2---2---2---2---2---2---2---2---2--|
B|---0---0---0---0---0---0---0---0---0--|
G|--------------------------------------| (2x) 
D|-----------------2-----------2--------|
A|--------------------------------------|
E|-4-------2----------------------------|

Guitar 2
e|-11\7----------------------------11\7----------------------------------|
B|--------7/11----------------------------7/11---------------------------|
G|--------------11---8h9r8---------------------11---8h9r8---8/11---------|
D|-----------------------------------------------------------------------|
A|-----------------------------------------------------------------------|
E|-----------------------------------------------------------------------|

[Verse 3]
Guitar 2 (comes in on the word "screams")
e|-11------------------------------------------------------------------------|
B|-12-----------------7--5--4b--0---------7--5--4b--0------------------------|
G|---------------------------------------------------------------------------|
D|---------------------------------------------------------------------------|
A|---------------------------------------------------------------------------|
E|---------------------------------------------------------------------------|

Guitar 1 (comes in on "never really want much")
e|---2---2---2---2---2---2---2---2---2--|
B|---0---0---0---0---0---0---0---0---0--|
G|--------------------------------------|  
D|-----------------2-----------2--------|
A|--------------------------------------|
E|-4-------2----------------------------|

e|---2---2---2---2---2---2---2---2---2-----2-----2----|
B|---0---0---0---0---0---0---0---0---0---0------------|
G|-------------------------------------------4--------|
D|-----------------2-----------2-------2-------2------|
A|----------------------------------------------------|
E|-4-------2------------------------------------------|


[Chorus] "I fight through... watch me let go."
    G#m               E                B                F#
e|---------------------------------------------------------------------------|
B|---------------------------------------------------------------------------|
G|-----------------------------------4-4-4-4-4-4-4-4-------------------------| (4x) (this time the chorus is 
D|-6-6-6-6-6-6-6-6--2-2-2-2-2-2-2-2--4-4-4-4-4-4-4-4--4-4-4-4-4-4-4-4--------|       
A|-6-6-6-6-6-6-6-6--2-2-2-2-2-2-2-2--2-2-2-2-2-2-2-2--4-4-4-4-4-4-4-4--------|
E|-4-4-4-4-4-4-4-4--0-0-0-0-0-0-0-0-------------------2-2-2-2-2-2-2-2--------|

[Post Chorus]
Guitar 1
e|------------------------------|
B|------------------------------|
G|------------4-----------------| (4x)
D|-6----4--6--4--2--------------|
A|-6----4--6--2--2--------------|
E|-4----2--4-----0--------------|

Guitar 2
e|-9---------9----12h13r12------|
B|------9-----------------------|
G|------------------------------| (2x) (Let the notes ring out)
D|------------------------------|
A|------------------------------|
E|------------------------------|

[Chorus]
    G#m               E                B                F#
e|---------------------------------------------------------------------------|
B|---------------------------------------------------------------------------|
G|-----------------------------------4-4-4-4-4-4-4-4-------------------------| (4x) (the first time is really
D|-6-6-6-6-6-6-6-6--2-2-2-2-2-2-2-2--4-4-4-4-4-4-4-4--4-4-4-4-4-4-4-4--------|       muffled in the original
A|-6-6-6-6-6-6-6-6--2-2-2-2-2-2-2-2--2-2-2-2-2-2-2-2--4-4-4-4-4-4-4-4--------|       song but it's there)
E|-4-4-4-4-4-4-4-4--0-0-0-0-0-0-0-0-------------------2-2-2-2-2-2-2-2--------|

[Outro] 
e|------------------------------|
B|------------------------------|
G|------------4-----------------| (let the last chord ring)
D|-6----4--6--4--2--------------|
A|-6----4--6--2--2--------------|
E|-4----2--4-----0--------------|

************************************

| h   Hammer-on
| r   Release
| b   Bend
| /   Slide up
| \   Slide down

************************************

            
            
Suggest correction
Creating personal tab
Creating personal tab
You can edit any tab online and save it as your Personal.

You can edit, replace or remove any tab part or add personal notes – all changes will be seen only by you.

Personal tabs can be accessed anytime from any device, even offline.
Learn more »
Give kudos to tab author, rate the tab!
1 2 3 4 5
comments
print report bad tab
guest
You may want to rate the tab now too:
select rating
Wanna post a correction for this tab? Suggest correction