Oops, an error
Loading. Please wait.

Keeper tab

1,588 views 48 this week
3 commentsread comments
1 2 3 4 5
x 4
add to favorites
×
Save as Personal and add changes to this tab that will be seen only by you. Learn more ›
×
You can save this tab as Personal to edit and correct it or add notes. All changes will be seen only by you. Learn more »
launch autoscroll
font size
0
reset
how to read this tab
guitar tuner
edit
Autoscroll
slow
fast
+/-
esc
set tempo
stop
Tuning: D Standard (DGCFAD)


Guitar 1 - Rhythm


[Intro] (0:00-0:09) "I need your help with all of this..."

D|--------------------------------------------------------------------------------|
A|--------------------------------------------------------------------------------|
F|-6-6-6-6-x-x-4~-4-4~-4-4-4-9-9-9-9-x-x-9~-9-9~-9-9-9----------------------------|
C|-6-6-6-6-x-x-4~-4-4~-4-4-4-9-9-9-9-x-x-9~-9-9~-9-9-9----------------------------| (x2)
G|-4-4-4-4-x-x-2~-2-2~-2-2-2-7-7-7-7-x-x-7~-7-7~-7-7-7----------------------------|
D|--------------------------------------------------------------------------------|

  
[Verse] (0:10-0:20) "I keep my mind away from home..."
            
D|--------------------------------------------------------------------------------|
A|--------------------------------------------------------------------------------|
F|-6-6-6-6-x-x-4~-4-4~-4-4-4-9-9-9-9-x-x-9~-9-9~-9-9-9----------------------------|
C|-6-6-6-6-x-x-4~-4-4~-4-4-4-9-9-9-9-x-x-9~-9-9~-9-9-9----------------------------| (x2)
G|-4-4-4-4-x-x-2~-2-2~-2-2-2-7-7-7-7-x-x-7~-7-7~-7-7-7----------------------------|
D|--------------------------------------------------------------------------------|


[Pre-Chorus] (0:21-0:29) "I need you..."

D|--------------------------------------------------------------------------------|
A|--------------------------------------------------------------------------------|
F|-6-6-6-6-x-x-4~-4-4~-4-4-4-9-9-9-9-x-x-9~-9-9~-9-9-9----------------------------|
C|-6-6-6-6-x-x-4~-4-4~-4-4-4-9-9-9-9-x-x-9~-9-9~-9-9-9----------------------------| 
G|-4-4-4-4-x-x-2~-2-2~-2-2-2-7-7-7-7-x-x-7~-7-7~-7-7-7----------------------------|
D|--------------------------------------------------------------------------------|

D|--------------------------------------------------------------------------------|
A|--------------------------------------------------------------------------------|
F|-6-6-6-6-x-x-4~-4-4~-4-4-4------------------------------------------------------|
C|-6-6-6-6-x-x-4~-4-4~-4-4-4-2~---------------------------------------------------| (x1)
G|-4-4-4-4-x-x-2~-2-2~-2-2-2-2~---------------------------------------------------|
D|---------------------------0~---------------------------------------------------|


[Chorus] (0:30-0:49) "Is someone there..."

D|--------------------------------------------------------------------------------|
A|--------------------------------------------------------------------------------|
F|-2-------------4-------------------(2)------------------------------------------|
C|-2------2------4------4------6-6-6-(2)------------------------------------------| (x2)
G|-0(x16)-2------2(x16)-4------6-6-6-(0)------------------------------------------|
D|--------0(x16)--------2(x13)-4-4-4----------------------------------------------|


[Post-Chorus/Intro](0:50-1:00)

D|--------------------------------------------------------------------------------|
A|--------------------------------------------------------------------------------|
F|-6-6-6-6-x-x-4~-4-4~-4-4-4-9-9-9-9-x-x-9~-9-9~-9-9-9----------------------------|
C|-6-6-6-6-x-x-4~-4-4~-4-4-4-9-9-9-9-x-x-9~-9-9~-9-9-9----------------------------| (x2)
G|-4-4-4-4-x-x-2~-2-2~-2-2-2-7-7-7-7-x-x-7~-7-7~-7-7-7----------------------------|
D|--------------------------------------------------------------------------------|


[Verse] (Bass only) (1:01-1:08) Bass follows root notes of chord progression, same rhythm (B, A, D...)
"I didn't wanna drag them down..."

F|--------------------------------------------------------------------------------|
C|--------------------------------------------------------------------------------| (x2)
G|-4-4-4-4-x-x-2~-2-2~-2-2-2-7-7-7-7-x-x-7~-7-7~-7-7-7----------------------------|
D|--------------------------------------------------------------------------------|

[Pre-Chorus] (1:09-1:18) "And I dive so deep..."

D|--------------------------------------------------------------------------------|
A|--------------------------------------------------------------------------------|
F|-6-6-6-6-x-x-4~-4-4~-4-4-4-9-9-9-9-x-x-9~-9-9~-9-9-9----------------------------|
C|-6-6-6-6-x-x-4~-4-4~-4-4-4-9-9-9-9-x-x-9~-9-9~-9-9-9----------------------------| 
G|-4-4-4-4-x-x-2~-2-2~-2-2-2-7-7-7-7-x-x-7~-7-7~-7-7-7----------------------------|
D|--------------------------------------------------------------------------------|

D|--------------------------------------------------------------------------------|
A|--------------------------------------------------------------------------------|
F|-6-6-6-6-x-x-4~-4-4~-4-4-4-9-9-9-9-x-x-9~-9-9-9-9-------------------------------|
C|-6-6-6-6-x-x-4~-4-4~-4-4-4-9-9-9-9-x-x-9~-9-9-9-9-------------------------------| (x1)
G|-4-4-4-4-x-x-2~-2-2~-2-2-2-7-7-7-7-x-x-7~-7-7-7-7-------------------------------|
D|--------------------------------------------------------------------------------|
                                                  !

[Chorus] (1:19-1:37) "Is someone there..."

D|--------------------------------------------------------------------------------|
A|--------------------------------------------------------------------------------|
F|-2-------------4-------------------(2)------------------------------------------|
C|-2------2------4------4------6-6-6-(2)------------------------------------------| 
G|-0(x16)-2------2(x16)-4------6-6-6-(0)------------------------------------------|
D|--------0(x16)--------2(x13)-4-4-4----------------------------------------------|

D|--------------------------------------------------------------------------------|
A|--------------------------------------------------------------------------------|
F|-2-------------4----------------------------------------------------------------|
C|-2------2------4----------------------------------------------------------------| (x1)
G|-0(x16)-2------2(x32)-----------------------------------------------------------|
D|--------0(x16)------------------------------------------------------------------|


[Bridge] (1:38-1:56)

D|--------------------------------------------------------------------------------|
A|--------------------------------------------------------------------------------|
F|-2~----4~----2~----4~-4~--------------------------------------------------------|
C|-2~-2~-4~-4~-2~-2~-4~-4~--------------------------------------------------------| (x1)
G|-0~-2~-2~-4~-0~-2~-2~-2~--------------------------------------------------------|
D|----0~----2~----0~--------------------------------------------------------------|


[Chorus] (1:57-2:16) "Is someone there..."

D|-0-0~-0-0-0~-0-0~-0-0-0~-0-0~-0-0-0~-0-0~-0-0-0~--------------------------------|
A|-0-0~-0-0-0~-0-0~-0-0-0~-0-0~-0-0-0~-0-0~-0-0-0~--------------------------------|
F|-2-2~-2-2-2~-2-2~-2-2-2~-1-1~-1-1-1~-1-1~-1-1-1~--------------------------------|
C|-2-2~-2-2-2~-2-2~-2-2-2~-2-2~-2-2-2~-2-2~-2-2-2~--------------------------------|
G|-0-0~-0-0-0~-0-0~-0-0-0~-2-2~-2-2-2~-2-2~-2-2-2~--------------------------------|
D|-------------------------0-0~-0-0-0~-0-0~-0-0-0~--------------------------------|
   D D  U D U  D D  U D U  D D  U D U  D D  U D U

D|-0-0~-0-0-0~-0-0~-0-0-0~--------------------------------------------------------|
A|-0-0~-0-0-0~-0-0~-0-0-0~--------------------------------------------------------|
F|-4-4~-4-4-4~-4-4~-4-4-4~--------------------------------------------------------|
C|-4-4~-4-4-4~-4-4~-4-4-4~-4-4----------------------------------------------------| 
G|-2-2~-2-2-2~-2-2~-2-2-2~-4-4----------------------------------------------------|
D|-------------------------2-2----------------------------------------------------|
   D D  U D U  D D  U D U    ! "And I've been thinking..."

"That I'm so lost..."
D|--------------------------------------------------------------------------------|
A|--------------------------------------------------------------------------------|
F|-2-------------4------4-4-4-4-4-4-4---------------------------------------------|
C|-2------2------4------4-4-4-4-4-4-4---------------------------------------------| (x1)
G|-0(x16)-2------2(x16)-2-2-2-2-2-2-2---------------------------------------------|
D|--------0(x16)------------------------------------------------------------------|
                                    ! 

[Outro] (2:17-End) "Is someone there/I need your help..."

D|--------------------------------------------------------------------------------|
A|--------------------------------------------------------------------------------|
F|-2-------------4-------------------(2)------------------------------------------|
C|-2------2------4------4------6-6-6-(2)------------------------------------------| 
G|-0(x16)-2------2(x16)-4------6-6-6-(0)------------------------------------------|
D|--------0(x16)--------2(x13)-4-4-4----------------------------------------------|

D|--------------------------------------------------------------------------------|
A|--------------------------------------------------------------------------------|
F|-2-------------4----------------------------------------------------------------|
C|-2------2------4----------------------------------------------------------------| (x1)
G|-0(x16)-2------2(x32)-----------------------------------------------------------|
D|--------0(x16)------------------------------------------------------------------|


Guitar 2 - Lead


[Intro] (0:00-0:09) "I need your help with all of this..."

D|--------------------------------------------------------------------------------|
A|--------------------------------------------------------------------------------|
F|--------------------------------------------------------------------------------|
C|--------------------------------------------------------------------------------| 
G|--------------------------------------------------------------------------------|
D|--------------------------------------------------------------------------------|


[Verse] (0:10-0:20) "I keep my mind away from home..."

D|-0-0-0-0-x-x-0~-0-0-0-0--0-0-0-0-0-0-0-0-0-0-0-0-0-0-0-0-0----------------------|
A|-9-9-9-9-x-x-7~-7-7-7-12-7-4-4-4-5-5-5-7-7-7-5-5-5-5-5-5-5----------------------|
F|--------------------------------------------------------------------------------|
C|--------------------------------------------------------------------------------|
G|--------------------------------------------------------------------------------|
D|--------------------------------------------------------------------------------|

D|-0-0-0-0-x-x-0~-0-0-0-0--0-0-0-0-0-0-0-0~---------------------------------------|
A|-9-9-9-9-x-x-7~-7-7-7-12-7-4-4-4-5-5-5-5~---------------------------------------|
F|--------------------------------------------------------------------------------|
C|--------------------------------------------------------------------------------| (x1)
G|--------------------------------------------------------------------------------|
D|--------------------------------------------------------------------------------|


[Pre-Chorus] (0:21-0:29) "I need you..."

D|-------7--------------------7--------------------7------------------------------|
A|-4h5p4---4h5p0-/9-7-5-4h5p4---4h5p0-/9-7-5-4h5p4---4h5p0-/9-7-5-5~--------------|
F|--------------------------------------------------------------------------------|
C|--------------------------------------------------------------------------------| (x1)
G|--------------------------------------------------------------------------------|
D|--------------------------------------------------------------------------------|


[Chorus] (0:30-0:49) "Is someone there..."

D|--------------------------------------------------------------------------------|
A|--------------------------------------------------------------------------------|
F|-9-9-9-9-9-9-9-9-9-9-9-9-9-9-9-9-9-9-9-9-9-9-9-9--11-11-11-11-13-13-13-13-------|
C|-x-x-x-x-x-x-x-x-x-x-x-x-x-x-x-x-x-x-x-x-x-x-x-x--x--x--x--x--x--x--x--x--------|
G|-7-7-7-7-7-7-7-7-7-7-7-7-7-7-7-7-7-7-7-7-7-7-7-7--9--9--9--9--11-11-11-11-------|
D|--------------------------------------------------------------------------------|

D|--------------------------------------------------------------------------------|
A|--------------------------------------------------------------------------------|
F|-8-8-8-8-8-8-8-8-8-8-8-8-8-8-8-8-6-6-6-6-6-6-6-6-6-6-6-6-6-8-8-8----------------|
C|-x-x-x-x-x-x-x-x-x-x-x-x-x-x-x-x-x-x-x-x-x-x-x-x-x-x-x-x-x-x-x-x----------------|
G|-6-6-6-6-6-6-6-6-6-6-6-6-6-6-6-6-4-4-4-4-4-4-4-4-4-4-4-4-4-6-6-6----------------|
D|--------------------------------------------------------------------------------|

D|--------------------------------------------------------------------------------|
A|--------------------------------------------------------------------------------|
F|-9-9-9-9-9-9-9-9-9-9-9-9-9-9-9-9-9-9-9-9-9-9-9-9--11-11-11-11-13-13-13-13-------|
C|-x-x-x-x-x-x-x-x-x-x-x-x-x-x-x-x-x-x-x-x-x-x-x-x--x--x--x--x--x--x--x--x--------|
G|-7-7-7-7-7-7-7-7-7-7-7-7-7-7-7-7-7-7-7-7-7-7-7-7--9--9--9--9--11-11-11-11-------|
D|--------------------------------------------------------------------------------|

D|--------------------------------------------------------------------------------|
A|--------------------------------------------------------------------------------|
F|-8-8-8-8-8-8-8-8-8-8-8-8-8-8-8-8-16-16-16-16-16-16-16-16-16-16-16-16-14-14-13-13|
C|-x-x-x-x-x-x-x-x-x-x-x-x-x-x-x-x-x--x--x--x--x--x--x--x--x--x--x--x--x--x--x--x-| (x1)
G|-6-6-6-6-6-6-6-6-6-6-6-6-6-6-6-6-14-14-14-14-14-14-14-14-14-14-14-14-12-12-11-11|
D|--------------------------------------------------------------------------------|


[Post-Chorus/Intro](0:50-1:00)

D|-0-0-0-0-x-x-0~-0-0-0-0--0-0-0-0-0-0-0-0-0-0-0-0-0-0-0-0-0----------------------|
A|-9-9-9-9-x-x-7~-7-7-7-12-7-4-4-4-5-5-5-7-7-7-5-5-5-5-5-5-5----------------------|
F|--------------------------------------------------------------------------------|
C|--------------------------------------------------------------------------------|
G|--------------------------------------------------------------------------------|
D|--------------------------------------------------------------------------------|

D|-0-0-0-0-x-x-0~-0-0-0-0--0-0-0-0-0-0-0-0~---------------------------------------|
A|-9-9-9-9-x-x-7~-7-7-7-12-7-4-4-4-5-5-5-5~---------------------------------------|
F|--------------------------------------------------------------------------------|
C|--------------------------------------------------------------------------------| (x1)
G|--------------------------------------------------------------------------------|
D|--------------------------------------------------------------------------------|


[Verse] (Bass only) (1:01-1:08) Bass follows root notes of chord progression, same rhythm (B, A, D...)
"I didn't wanna drag them down..."

F|--------------------------------------------------------------------------------|
C|--------------------------------------------------------------------------------| (x2)
G|-4-4-4-4-x-x-2~-2-2~-2-2-2-7-7-7-7-x-x-7~-7-7~-7-7-7----------------------------|
D|--------------------------------------------------------------------------------|


[Pre-Chorus] (1:09-1:18) "And I dive so deep..."

D|-------7--------------------7--------------------7------------------------------|
A|-4h5p4---4h5p0-/9-7-5-4h5p4---4h5p0-/9-7-5-4h5p4---4h5p0-/9-7-5-5~--------------|
F|--------------------------------------------------------------------------------|
C|--------------------------------------------------------------------------------| (x1)
G|--------------------------------------------------------------------------------|
D|--------------------------------------------------------------------------------|



[Chorus] (1:19-1:37) "Is someone there..."

D|--------------------------------------------------------------------------------|
A|--------------------------------------------------------------------------------|
F|-9-9-9-9-9-9-9-9-9-9-9-9-9-9-9-9-9-9-9-9-9-9-9-9--11-11-11-11-13-13-13-13-------|
C|-x-x-x-x-x-x-x-x-x-x-x-x-x-x-x-x-x-x-x-x-x-x-x-x--x--x--x--x--x--x--x--x--------|
G|-7-7-7-7-7-7-7-7-7-7-7-7-7-7-7-7-7-7-7-7-7-7-7-7--9--9--9--9--11-11-11-11-------|
D|--------------------------------------------------------------------------------|

D|--------------------------------------------------------------------------------|
A|--------------------------------------------------------------------------------|
F|-8-8-8-8-8-8-8-8-8-8-8-8-8-8-8-8-6-6-6-6-6-6-6-6-6-6-6-6-6-8-8-8----------------|
C|-x-x-x-x-x-x-x-x-x-x-x-x-x-x-x-x-x-x-x-x-x-x-x-x-x-x-x-x-x-x-x-x----------------|
G|-6-6-6-6-6-6-6-6-6-6-6-6-6-6-6-6-4-4-4-4-4-4-4-4-4-4-4-4-4-6-6-6----------------|
D|--------------------------------------------------------------------------------|

D|--------------------------------------------------------------------------------|
A|--------------------------------------------------------------------------------|
F|-9-9-9-9-9-9-9-9-9-9-9-9-9-9-9-9-9-9-9-9-9-9-9-9--11-11-11-11-13-13-13-13-------|
C|-x-x-x-x-x-x-x-x-x-x-x-x-x-x-x-x-x-x-x-x-x-x-x-x--x--x--x--x--x--x--x--x--------|
G|-7-7-7-7-7-7-7-7-7-7-7-7-7-7-7-7-7-7-7-7-7-7-7-7--9--9--9--9--11-11-11-11-------|
D|--------------------------------------------------------------------------------|

D|--------------------------------------------------------------------------------|
A|--------------------------------------------------------------------------------|
F|-8-8-8-8-8-8-8-8-8-8-8-8-8-8-8-8-16-16-16-16-16-16-16-16-16-16-16-16-14-14-13-13|
C|-x-x-x-x-x-x-x-x-x-x-x-x-x-x-x-x-x--x--x--x--x--x--x--x--x--x--x--x--x--x--x--x-| (x1)
G|-6-6-6-6-6-6-6-6-6-6-6-6-6-6-6-6-14-14-14-14-14-14-14-14-14-14-14-14-12-12-11-11|
D|--------------------------------------------------------------------------------|


[Bridge] (1:38-1:56)

D|-12~-----12~-----11~-----14~----------------------------------------------------|
A|-----12~-----12~-----12~-----12~------------------------------------------------|
F|--------------------------------------------------------------------------------|
C|--------------------------------------------------------------------------------| (x2)
G|--------------------------------------------------------------------------------|
D|--------------------------------------------------------------------------------|


[Chorus] (1:57-2:16) (Rhythm guitar, copied here for reference) "Is someone there..."

D|-0-0~-0-0-0~-0-0~-0-0-0~-0-0~-0-0-0~-0-0~-0-0-0~--------------------------------|
A|-0-0~-0-0-0~-0-0~-0-0-0~-0-0~-0-0-0~-0-0~-0-0-0~--------------------------------|
F|-2-2~-2-2-2~-2-2~-2-2-2~-1-1~-1-1-1~-1-1~-1-1-1~--------------------------------|
C|-2-2~-2-2-2~-2-2~-2-2-2~-2-2~-2-2-2~-2-2~-2-2-2~--------------------------------|
G|-0-0~-0-0-0~-0-0~-0-0-0~-2-2~-2-2-2~-2-2~-2-2-2~--------------------------------|
D|-------------------------0-0~-0-0-0~-0-0~-0-0-0~--------------------------------|
   D D  U D U  D D  U D U  D D  U D U  D D  U D U

D|-0-0~-0-0-0~-0-0~-0-0-0~--------------------------------------------------------|
A|-0-0~-0-0-0~-0-0~-0-0-0~--------------------------------------------------------|
F|-4-4~-4-4-4~-4-4~-4-4-4~--------------------------------------------------------|
C|-4-4~-4-4-4~-4-4~-4-4-4~-4-4----------------------------------------------------| (x1) 
G|-2-2~-2-2-2~-2-2~-2-2-2~-4-4----------------------------------------------------|
D|-------------------------2-2----------------------------------------------------|
   D D  U D U  D D  U D U    ! "And I've been thinking..."

"That I'm so lost..."
D|--------------------------------------------------------------------------------|
A|--------------------------------------------------------------------------------|
F|-9-9-9-9-9-9-9-9-9-9-9-9-9-9-9-9-9-9-9-9-9-9-9-9--11-11-11-11-13-13-13-13-------|
C|-x-x-x-x-x-x-x-x-x-x-x-x-x-x-x-x-x-x-x-x-x-x-x-x--x--x--x--x--x--x--x--x--------|
G|-7-7-7-7-7-7-7-7-7-7-7-7-7-7-7-7-7-7-7-7-7-7-7-7--9--9--9--9--11-11-11-11-------|
D|--------------------------------------------------------------------------------|

D|--------------------------------------------------------------------------------|
A|--------------------------------------------------------------------------------|
F|-8-8-8-8-8-8-8-8-8-8-8-8-8-8-8-8-16-16-16-16-16-16-16---------------------------|
C|-x-x-x-x-x-x-x-x-x-x-x-x-x-x-x-x-x--x--x--x--x--x--x----------------------------| (x1)
G|-6-6-6-6-6-6-6-6-6-6-6-6-6-6-6-6-14-14-14-14-14-14-14---------------------------|
D|--------------------------------------------------------------------------------|
                                                     !

[Outro] (2:17-End) "Is someone there/I need your help..."

D|-2h4p2p0---2h4p2p0---4~-2h4p2p0---2h4p2p0---4~----------------------------------|
A|---------2---------2------------2---------2-------------------------------------|
F|--------------------------------------------------------------------------------|
C|--------------------------------------------------------------------------------|
G|--------------------------------------------------------------------------------|
D|--------------------------------------------------------------------------------|

D|-2h4p2p0---2h4p2p0---4~-0-0-0-0-0-0-0--0--0--0--0--0--0--0----------------------|
A|---------2---------2----7-7-7-9-9-9-12-12-12-12-12-12-12-12---------------------|
F|--------------------------------------------------------------------------------|
C|--------------------------------------------------------------------------------| (x1)
G|--------------------------------------------------------------------------------|
D|--------------------------------------------------------------------------------|

D|-12-12-12-14-14-14-12-12-12-12-12-12-12-12-12-12--------------------------------|
A|-12-12-12-12-12-12-12-12-12-12-12-12-12-12-12-12--------------------------------|
F|--------------------------------------------------------------------------------|
C|--------------------------------------------------------------------------------| (x4)
G|--------------------------------------------------------------------------------|
D|--------------------------------------------------------------------------------|


End

************************************

h - Hammer-on
p - Pull-off
/ - Slide up
\ - Slide down
pm - Palm mute
x - Dead note
! - Kill note quickly
D - Strum down
U - Strum up

************************************
Suggest correction
Creating personal tab
Creating personal tab
You can edit any tab online and save it as your Personal.

You can edit, replace or remove any tab part or add personal notes – all changes will be seen only by you.

Personal tabs can be accessed anytime from any device, even offline.
Learn more »
comments
print report bad tab
3 comments total.
-1 reply
linkzero99 10 Feb 27, 2017 10:13 PM

The tuning should be drop c

0 reply
Kazuvocals 10 May 10, 2017 01:50 AM

HA FUCK EM

guest
You may want to rate the tab now too:
select rating
Wanna post a correction for this tab? Suggest correction