Oops, an error
Loading. Please wait.

Tonight Bass Tab

52 views 12 this week
no commentswrite comment
1 2 3 4 5
3 more votes to show rating
add to favorites
launch autoscroll
font size
0
reset
guitar tuner
Autoscroll
slow
fast
+/-
esc
set tempo
stop
Help us to improve Ultimate-Guitar.com Take our survey!
×
Author
Difficulty
novice
Song- Tonight / With Confidence
Key- Bb*
tuning: standard*
*they could be tuned a half-step down

[Intro]
G|----------------|-----------------|
D|----------------|-----------------|
A|-1-1-------5-5--|------------5-5--|  x4
E|----------------|--3-3------------|
   1 + 2 + 3 + 4 +  1 + 2 + 3 + 4 +  

[Verse]
G|-----------------|----------------|
D|-----------------|----------------|
A|-1-1-------3---3-|-----------3--3-|  x4
E|-----------------|-3-3------------|
   1 + 2 + 3 + 4 +  1 + 2 + 3 + 4 +   

[Pre-Chorus]
G|-----------------|-----------------|-----------------|-----------------|
D|-----------------|-----------------|-----------------|-----------------|
A|-3-------8-------|-----------------|-8-------3-------|-----------------|
E|-----------------|-----------------|-----------------|-2-2-2-2-2-------|
   1 + 2 + 3 + 4 +  1 + 2 + 3 + 4 +   1 + 2 + 3 + 4 +   1 + 2 + 3 + 4 + 

[Chorus]
G|-----------------|----------------|
D|-----------------|----------------|
A|-1-1-------5-5---|-----------5-5--| x6
E|-----------------|-3-3------------|
   1 + 2 + 3 + 4 +  1 + 2 + 3 + 4 +  

[Verse]
G|-----------------|----------------|
D|-----------------|----------------|
A|-1-1-------3---3-|----------3---3-|  x2
E|-----------------|-3-3------------|
   1 + 2 + 3 + 4 +  1 + 2 + 3 + 4 + 

[Pre-Chorus]
G|-----------------|-----------------|-----------------|--------------|
D|-----------------|-----------------|-----------------|--------------|
A|-3-------8-------|-----------------|-8-------3-------|--------------|
E|-----------------|-----------------|-----------------|----2-2-2-2-2-|
   1 + 2 + 3 + 4 +  1 + 2 + 3 + 4 +   1 + 2 + 3 + 4 +   1 + 2 + 3 + 4 + 

[Chorus]
G|-----------------|----------------|
D|-----------------|----------------|
A|-1-1-------5-5---|-----------5-5--| x3
E|-----------------|-3-3------------|
   1 + 2 + 3 + 4 +  1 + 2 + 3 + 4 +  

[Bridge/Solo]
G|-----------------|-----------------|-----------------|-----------------|
D|-----------------|-----------------|-----------------|-----------------|
A|-3-3-3-3-3-3-3-3-|-8-8-8-8-8-8-8-8-|-----------------|-----------------|  x4
E|-----------------|-----------------|-3-3-3-3-3-3-3-3-|-1-1-1-1-1-1-1-1-|
   1 + 2 + 3 + 4 +  1 + 2 + 3 + 4 +   1 + 2 + 3 + 4 +   1 + 2 + 3 + 4 + 

[Outro]
G|-----------------|-----------------|
D|-----------------|-----------------|
A|-1-1-------5-5---|-----------5-5---|  Until end
E|-----------------|-3-3-------------|
   1 + 2 + 3 + 4 +  1 + 2 + 3 + 4 +
Suggest correction
Give kudos to tab author, rate the tab!
1 2 3 4 5
comments
print report bad tab
guest
You may want to rate the tab now too:
select rating
Wanna post a correction for this tab? Suggest correction