Oops, an error
Loading. Please wait.

Voldemort Tab

997 views 78 this week
no commentswrite comment
1 2 3 4 5
x 4
add to favorites
launch autoscroll
font size
0
reset
how to read this tab
guitar tuner
Autoscroll
slow
fast
+/-
esc
set tempo
stop
Help us to improve Ultimate-Guitar.com Take our survey!
×
Author
Difficulty
Tuning
intermediate
D A D G B E
Check out my cover on YouTube!: https://www.youtube.com/watch?v=3nknHJJh0a8

Intro/Verse:

Guitar 1
e|-------------------------------------------------------------|
B|-------------------------------------------------------------|
G|-3~-3--------------------------3~-3-----3~-------------------|
D|-3~-3--------------------------3~-3-----3~-------------------|
A|-1~-1---------1-3~-1--x16------1~-1-----1~-------1--x16------|
D|--------------1-3~-1-------------------------12\-1-----------|

Guitar 2
e|-------------------------------------------------------------|
B|-3~-3--------------------------3~-3-----3~-------------------|
G|-------------------------------------------------------------|
D|-3~-3---------1-3~-3-----5-----3~-3-----3~-------3-----5-----|
A|-1~-1---------1-3~-1--x8-1--x8-1~-1-----1~-------1--x8-1--x8-|
D|--------------1-3~-1-----1-----------------------1-----1-----|

Prechorus ("And I know that you're holding out..."):

Guitar 1
e|------------------------------------------------------------------------------------%-------|
B|-------------------------------------------------------------------------------------6------|
G|----7p5----5p3----2h3----2h3----7p5----5p3-------xx-2h3-----7p5----5p3----2h3----2h3-5--x16-|
D|--------------------------------------------------------------------------------------------|
A|--------------------------------------------------------------------------------------------|
D|--------------------------------------------------------------------------------------------|

Guitar 2
e|-----------------%-----------|
B|-----------------------------|
G|-----------------------------|
D|-3---------1-----------------|
A|-3--x30-xx-1--x16-3~---------|
D|-3------xx-1------3~---------|

Chorus (both guitars):
e|--------------------------------------------------------------------------------------------------|
B|--------------------------------------------------------------------------------------------------|
G|--------------------------------------------------------------------------------------------------|
D|-1-----3-----5-----3-----1-----3-----5~------55------55----1-----3-----5-----3-----1-----3--------|
A|-1--x8-3--x8-5--x8-3--x8-1--x8-3--x8-5~-xxxx-55-xxxx-55-xx-1--x8-3--x8-5--x8-3--x8-1--x8-3--x6----|
D|-1-----3-----5-----3-----1-----3-----5~-xxxx-55-xxxx-55-xx-1-----3-----5-----3-----1-----3-----5\-|

Postchorus:

Guitar 1
e|---------------|
B|---------------|
G|-3-------------|
D|-3--x32-1------|
A|-1------1--x32-|
D|--------1------|

Guitar 2
e|------------------2x-|-------------------------|
B|---------------------|-------------------------|
G|-777~-7~-7-5~/7-7-7~-|-3~-33-3~-3/10~-1010-10~-|
D|---------------------|-------------------------|
A|-555~-5~-5-3~/5-5-5~-|-1~-11-1~-1/8~--8-8--8~--|
D|---------------------|-------------------------|

Verse 2:

Guitar 1
e|---------------------------------------------------------------------------------------------------|
B|---------------------------------------------------------------------------------------------------|
G|-3~\----------------------------------3~-3---------------------------------------------------------|
D|-3~\----------------------------------3~-3---------------------------------------------------------|
A|-1~\----------3~-1--x16---------------1~-1-----------------------------------------------3~-1--x16-|
D|--------------3~-1-----------------------------------------------------------------------3~-1------|

Guitar 2
e|-------------------------------------------------------------------------|
B|-------------------------------------------------------------------------|
G|-7~\-------------3------15-----10----------10---8---7---8p7-----5h7p5\3~-|
D|--------------------x16-----x8----x8--8~-8----8---8---8-----8-8----------|
A|-5~\-------------1------13-----8-----------------------------------------|
D|-------------------------------------------------------------------------|
                                           *    *   *   *     * *
Guitar 2 cont'd
e|--------------------------------------------------------|
B|--------------------------------------------------------|
G|---10---8---7---7h8-----8h10p8-3-----10----15-----10----|
D|-8----8---8---8-----8-8-----------x8----x8-----x8----x8-|
A|-------------------------------1-----8-----13-----8-----|
D|--------------------------------------------------------|
   *    *   *   *     * *
Repeat:
Prechorus - omit the chords played after the % symbol for guitar 1
Chorus

Bridge:
                                      Change tone to acoustic V
Guitar 1
e|-----------------------------------|-3-----1-----3-----1-----3-----|-1-----3~------33------33----|-1~---|
B|-----------------------------------|-4-----1-----3-----1-----4-----|-1-----3~------33------33----|-1~---|
G|-----------------------------------|-3--x8-2--x8-3--x8-2--x8-3--x8-|-2--x8-3~-xxxx-33-xxxx-33-xx-|-2~---|
D|-5-----0-----1---------5-----0-----|-5-----3-----5-----3-----5-----|-3-----5~-xxxx-55-xxxx-55-xx-|-3~---|
A|-5--x8-1--x8-1--x14----5--x8-1--x8-|-------------------------------|-----------------------------|-3~---|
D|-5-----3-----1------3\-5-----3-----|-------------------------------|--------------------------1.-|---2.-|

Guitar 2, 2x - on the second time, stop playing after the %
e|-13----13----13----13----11----11----10----10--------------------------------------------------| On the
B|----11----11----11----11----11----11----11----11------11~-----11~-------------11~-----11~------| second 
G|-------------------------------------------------12h14~--12h14~----14~---12h14~--12h14~----14~-| time stop 
D|-----------------------------------------------------------------------------------------------| playing
A|-----------------------------------------------------------------------------------------------| after the
D|------------------------------------------------%----------------------------------------------| % symbol

Final Chorus:

Guitar 1
e|--------------------------------------------------------------------------------------------------|
B|--------------------------------------------------------------------------------------------------|
G|--------------------------------------------------------------------------------------------------|
D|-1-----3-----5-----3-----1-----3-----5~------55------55----1-----3-----5-----3-----1-----3--------|
A|-1--x8-3--x8-5--x8-3--x8-1--x8-3--x8-5~-xxxx-55-xxxx-55-xx-1--x8-3--x8-5--x8-3--x8-1--x8-3--x6----|
D|-1-----3-----5-----3-----1-----3-----5~-xxxx-55-xxxx-55-xx-1-----3-----5-----3-----1-----3-----5\-|

Guitar 2
e|----------------------------------------------------------13--13--11--11--10--10--10--10--13--13--11--11-|
B|------------------------------------------------------------11--11--11--11--11--11--11--11--11--11--11---|
G|---------------------------------------------------------------------------------------------------------|
D|-1-----3-----5-----3-----1-----3-----5~------55------55--------------------------------------------------|
A|-1--x8-3--x8-5--x8-3--x8-1--x8-3--x8-5~-xxxx-55-xxxx-55--------------------------------------------------|
D|-1-----3-----5-----3-----1-----3-----5~-xxxx-55-xxxx-55--------------------------------------------------|
                                                                 ^This is very faint in the background
Postchorus:

Guitar 1
e|---------------|         |---------------|
B|---------------|         |---------------|
G|-3-------------| (pause) |-3-------------|
D|-3--x32-1------|         |-3--x32-1------|
A|-1------1--x32-|         |-1------1--x32-|
D|--------1------|         |--------1------|

Guitar 2
e|------------------2x-|----------------------2x-|-6--10--|-6t10h11-|-6t10h13-6t10h11-|
B|---------------------|-------------------------|--------|---------|-----------------|
G|-777~-7~-7-5~/7-7-7~-|-3~-33-3~-3/10~-1010-10~-|--------|---------|-----------------|
D|---------------------|-------------------------|--------|---------|-----------------|
A|-555~-5~-5-3~/5-5-5~-|-1~-11-1~-1/8~--8-8--8~--|--------|---------|-----------------|
D|---------------------|-------------------------|--------|-----14x-|-----------------|
                                                         ^Not 100% accurate^
Suggest correction
comments
print report bad tab
guest
You may want to rate the tab now too:
select rating
Wanna post a correction for this tab? Suggest correction