Oops, an error
Loading. Please wait.

Voldemort tab

version 2
version 2

Whole song

  • Credited to the original author of this tab which ... Show more

Interactive

679 views 33 this week
no commentswrite comment
1 2 3 4 5
x 3
add to favorites
×
Save as Personal and add changes to this tab that will be seen only by you. Learn more ›
×
You can save this tab as Personal to edit and correct it or add notes. All changes will be seen only by you. Learn more »
launch autoscroll
font size
0
reset
how to read this tab
guitar tuner
edit
Autoscroll
slow
fast
+/-
esc
set tempo
stop
About this tab version
Credited to the original author of this tab which was found on youtube. This is the lead version of the acoustic version of the song. Was this info helpful? Yes No
With Confidence - Voldemort (Acoustic)
Tab by Ben Cook (Cover: https://www.youtube.com/watch?v=IPsE-DwjnPc)

Lead Guitar
Standard Tuning
Capo Fret 1

[Intro]
e|-------------------------------------------------------------------------------------------------------|
B|-------3-----------------------------------------------------------------------------------------------|
G|--2/4-----2--0~----------------------------------------------------------------------------------------|
D|-------------------------------------------------------------------------------------------------------|
A|-------------------------------------------------------------------------------------------------------|
E|-------------------------------------------------------------------------------------------------------|

[Intro Over Rhythm]
e|-------------------------------------------------------------------------------------------------------|
B|--3/5--3--0----------3--------------3/5--3--0----------3-----------3/5--3--0----------3----------------|
G|-------------0--2/4-----2--0~------------------0--2/4-----4~------------------0--2/4-----4\2--0~-------|
D|-------------------------------------------------------------------------------------------------------|
A|-------------------------------------------------------------------------------------------------------|
E|-------------------------------------------------------------------------------------------------------|

e|-------------------------------------------------------------------------------------------------------|
B|-------0-------0-------0-------0-------0--0h2-----0~---------------------------------------------------|
G|--0h2-----0h2-----0h2-----0h2-----0h2----------0-------------------------------------------------------|
D|-------------------------------------------------------------------------------------------------------|
A|-------------------------------------------------------------------------------------------------------|
E|-------------------------------------------------------------------------------------------------------|

[Verse 1]
[After the first line of vocals.]
e|-----------------------------------------------------------------------------------------------------------|
B|--3/5--3--0----------3-------------------3/5--3--0----------3~---------------------------------------------|
G|-------------0--2/4-----2--0~-----------------------0--2/4-----------4~------------------------------------|
D|-----------------------------------------------------------------------------------------------------------|
A|-----------------------------------------------------------------------------------------------------------|
E|-----------------------------------------------------------------------------------------------------------|

[After the second line of vocals.]
e|-------3--------------------------------------3---------------3--5--7~-------------------------------------|
B|--3h5-----5p3--0--3/5--3-----------------3h5-----5p3--0--3/5-----------------------------------------------|
G|--------------------------2--2/4~--------------------------------------------------------------------------|
D|-----------------------------------------------------------------------------------------------------------|
A|-----------------------------------------------------------------------------------------------------------|
E|-----------------------------------------------------------------------------------------------------------|

[Pre-chorus]
[You can hear these play/ring towards the end of the pre-chorus.]
e|-----------------------------------5~----------7~----------3~----------------------------------5~----------|
B|-----------------------------------5~----------7~----------3~----------------------------------3~----------|
G|-----------------------------------------------------------------------------------------------------------|
D|-----------------------------------------------------------------------------------------------------------|
A|-----------------------------------------------------------------------------------------------------------|
E|-----------------------------------------------------------------------------------------------------------|

[Chorus]
[This is what I played in the background of the chords. You can hear something similar in 
the original.]
e|--3-----3-----5-----5-----7-----7-----3h5--7-----5-----3-----------3-----3-----5-----5-----10-----10----10-|
B|----10-----------------------------------------------------------------------------------------------------|
G|-----3-----3-----3-----3-----3-----3----------------------------------3-----3-----3-----3------8-----8-----|
D|-8------8--------------------------------------------------------------------------------------------------|
A|-----------------------------------------------------------------------------------------------------------|
E|-----------------------------------------------------------------------------------------------------------|

e|--3-----3-----5-----5-----7-----7-----3h5--7-----5-----3-----------3-----3-----5~-------------------------|
B|-----3-----3-----3-----3-----3-----3----------------------------------3-----3-----------------------------|
G|----------------------------------------------------------------------------------------------------------|
D|----------------------------------------------------------------------------------------------------------|
A|----------------------------------------------------------------------------------------------------------|
E|----------------------------------------------------------------------------------------------------------|

[Post-chorus]
e|----------------------------------------------------------------------------------------------------------|
B|--3/5--3--0----------3--------------3/5--3--0----------3-----------3/5--3--0----------3-------------------|
G|-------------0--2/4-----2--0~------------------0--2/4-----4~------------------0--2/4-----2--0~------------|
D|----------------------------------------------------------------------------------------------------------|
A|----------------------------------------------------------------------------------------------------------|
E|----------------------------------------------------------------------------------------------------------|

e|----------------------------------------------------------------------------------------------------------|
B|----------------------------------------------------------------------------------------------------------|
G|-------0-------0-------0-------0-------0--2--4~-----------------------------------------------------------|
D|--0h2-----0h2-----0h2-----0h2-----0h2---------------------------------------------------------------------|
A|----------------------------------------------------------------------------------------------------------|
E|----------------------------------------------------------------------------------------------------------|

[Verse 2]
[After the first line of vocals.]
e|----------------------------------------------------------------------------------------------------------|
B|--3/5--3--0----------3------------------------3/5--3--0-----3--3------1--1-----0--------------------------|
G|-------------0--2/4-----4\2--0---------------------------0--4--4-----/2--2-----0--------------------------|
D|----------------------------------------------------------------------------------------------------------|
A|----------------------------------------------------------------------------------------------------------|
E|----------------------------------------------------------------------------------------------------------|

[During the end of/after the second line of vocals.]
e|-------5~------------------7~------------------8~-------------------10~-----------------------------------|
B|----------------------------------------------------------------------------------------------------------|
G|--3/5-----------------5/7-----------------7/9-----------------9/11----------------------------------------|
D|----------------------------------------------------------------------------------------------------------|
A|----------------------------------------------------------------------------------------------------------|
E|----------------------------------------------------------------------------------------------------------|

[Pre-chorus]
e|-----------------------------------5~----------7~----------3~--------------------------------5~-----------|
B|-----------------------------------5~----------7~----------3~--------------------------------3~-----------|
G|----------------------------------------------------------------------------------------------------------|
D|----------------------------------------------------------------------------------------------------------|
A|----------------------------------------------------------------------------------------------------------|
E|----------------------------------------------------------------------------------------------------------|

[Chorus]
e|--3-----3-----5-----5-----7-----7-----3h5--7-----5-----3-------|
B|-----3-----3-----3-----3-----3-----3---------------------------|
G|---------------------------------------------------------------|
D|---------------------------------------------------------------|
A|---------------------------------------------------------------|
E|---------------------------------------------------------------|

e|--------3-----3-----5-----5-----10-----10-----10-----10-----|
B|-----------3-----3-----3-----3------8------8------8------8--|
G|------------------------------------------------------------|
D|------------------------------------------------------------|
A|------------------------------------------------------------|
E|------------------------------------------------------------|

e|--3-----3-----5-----5-----7-----7-----3h5--7-----5-----3---------------3-----3-----5----------------------|
B|-----3-----3-----3-----3-----3-----3--------------------------------------3-----3-------------------------|
G|----------------------------------------------------------------------------------------------------------|
D|----------------------------------------------------------------------------------------------------------|
A|----------------------------------------------------------------------------------------------------------|
E|----------------------------------------------------------------------------------------------------------|

************************************

| /  Slide up
| ~  Vibrato
| \  Slide down
| h  Hammer-on
| p  Pull-off

************************************

            
            
Suggest correction
Creating personal tab
Creating personal tab
You can edit any tab online and save it as your Personal.

You can edit, replace or remove any tab part or add personal notes – all changes will be seen only by you.

Personal tabs can be accessed anytime from any device, even offline.
Learn more »
Give kudos to tab author, rate the tab!
1 2 3 4 5
comments
print report bad tab
guest
You may want to rate the tab now too:
select rating
Wanna post a correction for this tab? Suggest correction