Oops, an error
Loading. Please wait.
We have Chord Pro version of Well Be Okay.
It's the closest thing you can get to the original song and it has interactive parts. Check out the tab »
×

Well Be Okay bass

version 1
version 1

Whole song

  • Tab from the music video, which can be found here-... Show more

Interactive

463 views 27 this week
1 commentread comment
1 2 3 4 5
x 3
add to favorites
×
Save as Personal and add changes to this tab that will be seen only by you. Learn more ›
×
You can save this tab as Personal to edit and correct it or add notes. All changes will be seen only by you. Learn more »
launch autoscroll
font size
0
reset
guitar tuner
edit
Autoscroll
slow
fast
+/-
esc
set tempo
stop
Author
Difficulty
Tuning- Standard

[Intro]
rest for 7 measures

G|----------------|------------------|----------------|
D|----------------|------------------|----------------|
A|----------------|------------------|----------------|
E|3---------------|10-10-----7-7-----|5-5-----3-3---9-|

[Verse]
G|------------------|----------------|
D|------------------|----------------|
A|------------------|----------------|   repeat x3
E|10-10-----7-7-----|5-5-----3-3---9-|

G|------------------|----------------|
D|------------------|----------------|
A|------------------|----------------| 
E|10-10-----7-7-----|5-5-----3-------|

[Pre-Chorus]
G|----------------|
D|----------------|
A|----------------|   repeat x3
E|2-3-2-3---------|

rest one measure

[Chorus]
G|----------------|----------------|----------------|----------------|
D|----------------|----------------|----------------|----------------|
A|5---5---5---5---|----------------|----------------|----------------|   repeat x2
E|----------------|3---3---3---3---|7---7---7---7---|5---5---5---5---|

[Post-Chorus]
G|------------------|----------------|
D|------------------|----------------|
A|------------------|----------------|
E|10-10-----7-7-----|5-5-----3-3---9-|

G|------------------|----------------|
D|------------------|----------------|
A|------------------|----------------|
E|10-10-----7-7-----|3---------------|

[2nd verse]
G|----------------------------------------|---------------------------------|
D|----------------------------------------|---------------------------------|
A|----------------------------------------|---------------------------------|   repeat x2
E|10-10-10-10-10-10-10-10-7-7-7-7-7-7-7-7-|-5-5-5-5-5-5-5-5-3-3-3-3-3-3-3-3-|

G|------------------|----------------|
D|------------------|----------------|
A|------------------|----------------|
E|10-10-----7-7-----|5-5-----3-3---9-|

G|------------------|----------------|
D|------------------|----------------|
A|------------------|----------------|
E|10-10-----7-7-----|3---------------|

[Chorus]
G|----------------|----------------|----------------|----------------|
D|----------------|----------------|----------------|----------------|
A|5---5---5---5---|----------------|----------------|----------------|   repeat x2
E|----------------|3---3---3---3---|7---7---7---7---|5---5---5---5---|

[Bridge]
G|------------|----------------|----------------|----------------|
D|------------|----------------|----------------|----------------|
A|------------|let ring--------|----------------|let ring--------|
E|7---5---3---|----------------|7---5---3---5---|----------------|

G|------------|----------------|----------------|----------------|
D|------------|----------------|----------------|----------------|
A|------------|let ring--------|----------------|----------------|
E|7---5---3---|----------------|7---5---3---5---|--5-5-5-5-5-5-5-|

[Chorus]
G|----------------|----------------|----------------|----------------|
D|----------------|----------------|----------------|----------------|
A|rest------------|----------------|----------------|----------------| 
E|----------------|3---3---3---3---|7---7---7---7---|5---5---5---5---|

G|----------------|----------------|----------------|----------------|
D|----------------|----------------|----------------|----------------|
A|5---5---5---5---|----------------|----------------|----------------|
E|----------------|3---3---3---3---|7---7---7---7---|5---5---5---5---|

[Outro]
G|------------------|----------------|
D|------------------|----------------|
A|------------------|----------------|
E|10-10-----7-7-----|5-5-----3-3---9-|

G|------------------|----------------|
D|------------------|----------------|
A|------------------|----------------|
E|10-10-----7-7-----|3---------------|

Suggest correction
Creating personal tab
Creating personal tab
You can edit any tab online and save it as your Personal.

You can edit, replace or remove any tab part or add personal notes – all changes will be seen only by you.

Personal tabs can be accessed anytime from any device, even offline.
Learn more »
Give kudos to tab author, rate the tab!
1 2 3 4 5
comments
print report bad tab
1 comment total.
-1 reply
bencurry99 198 Feb 05, 2017 03:44 PM

sounds all right to me only thing I think should change is that the notes should play for 8 instead of 4 within the chorus but its all still perfect!

guest
You may want to rate the tab now too:
select rating
Wanna post a correction for this tab? Suggest correction