Oops, an error
Loading. Please wait.
We have Chord Pro version of Well Be Okay.
It's the closest thing you can get to the original song and it has interactive parts. Check out the tab »
×
1,717 views 24 this week
3 commentsread comments
1 2 3 4 5
x 4
add to favorites
×
Save as Personal and add changes to this tab that will be seen only by you. Learn more ›
×
You can save this tab as Personal to edit and correct it or add notes. All changes will be seen only by you. Learn more »
launch autoscroll
font size
0
reset
how to read this tab
guitar tuner
edit
Autoscroll
slow
fast
+/-
esc
set tempo
stop
Author
Difficulty
-------------------------------------------------------------------------------
                             We'll Be Okay - With Confidence 
-------------------------------------------------------------------------------
Tabbed by: hairsprxy-queen
E-mail: jamiesky-97@outlook.com

Tuning: Standard

This is my first ever tab, so I'm sorry in advance if I've messed up the layout of it. As far as I'm aware,
this tab is all correct, except for the second verse, but what I've put does work with the studio recording
of the song as well.

I hope this helps you learn the song :)

Guitar 1: Luke
Guitar 2: Inigo

****************

VERSE ONE
Guitar 1:
e|------------------------------|
B|------------------------------|
G|--7-7----------------------6--|
D|--7-7---9-9---7-7---5-5-x--7--| x3
A|--5-5---9-9---7-7---5-5-x--4--|
E|--------7-7---5-5---3-3-x-----|

Guitar 2 comes in on the G5 chord:
e|----------------------|
B|----------------------|
G|--7-7-----------------|
D|--7-7---9-9---5-------|
A|--5-5---9-9---5-Hold--|
E|--------7-7---3-------|

Guitar 1 and 2:
e|-----------------------------|
B|-----------------------------|
G|--7-7---------------------6--|
D|--7-7---9-9---7-7---5-5-x-7--| x2
A|--5-5---9-9---7-7---5-5-x-4--|
E|--------7-7---5-5---3-3-x----|

Guitar 1:
e|-----------------------------|---------------------------|
B|-----------------------------|---------------------------|
G|--7-7---------------------6--|--7-7----------------------|
D|--7-7---9-9---7-7---5-5-x-7--|--7-7---9-9---7-7---5-5-5--|
A|--5-5---9-9---7-7---5-5-x-4--|--5-5---9-9---7-7---5-5-5--|
E|--------7-7---5-5---3-3-x----|--------7-7---5-5---3-3-3--|

Guitar 2:
e|------10-9--------------|--------10-9----------|
B|----10----10--10h12-10--|------10----10--------|
G|------------11----------|--------------11-9-7--|
D|-/12--------------------|---/12----------------|
A|------------------------|----------------------|
E|------------------------|----------------------|

PRE CHORUS- "And I could be fire..."
Guitars 1 and 2:
e|------------|
B|------------|
G|------------|
D|------------| x3
A|-5/5-5-5/5--|
E|-2/3-3-2/3--|

CHORUS
Guitars 1 and 2:
e|-------------------|-------------------|-------------------|-------------------|
B|-------------------|-------------------|-------------------|-------------------|
G|--7-7-7-7-7-7-7-7--|-------------------|-------------------|-------------------|
D|--7-7-7-7-7-7-7-7--|--5-5-5-5-5-5-5-5--|--9-9-9-9-9-9-9-9--|--7-7-7-7-7-7-7-7--| x2
A|--5-5-5-5-5-5-5-5--|--5-5-5-5-5-5-5-5--|--9-9-9-9-9-9-9-9--|--7-7-7-7-7-7-7-7--|
E|-------------------|--3-3-3-3-3-3-3-3--|--7-7-7-7-7-7-7-7--|--5-5-5-5-5-5-5-5--|

PRE-VERSE (intro)
Guitar 1:
e|------x-x-------x-x-------x-x------------|------x-x-------x-x-----------|
B|------x-x-------x-x-------x-x------------|------x-x-------x-x-----------|
G|--7-7-x-x-------x-x-------x-x---------6--|--7-7-x-x-------x-x-----------|
D|--7-7-x-x---9-9-x-x---7-7-x-x---5-5-x-7--|--7-7-x-x---9-9-x-x---5-------|
A|--5-5-x-x---9-9-x-x---7-7-x-x---5-5-x-4--|--5-5-x-x---9-9-x-x---5-Hold--|
E|------x-x---7-7-x-x---5-5-x-x---3-3-x----|------x-x---7-7-x-x---3-------|

Guitar 2:
e|------10-9--------------|-------10-9----------|
B|----10----10--10h12-10--|-----10----10--------|
G|------------11----------|-------------11-9-7--|
D|-/12--------------------|--/12----------------|
A|------------------------|---------------------|
E|------------------------|---------------------|

I'm not entirely sure what is they play for the second verse. I tried working it out by ear, but wasn't
successful. If you do what they play, feel free to leave it in the comments, so I can add it to the tab, but
for now, I know you can get away with using the intro chords and playing them like this:

e|-----------------------------------------|
B|-----------------------------------------|
G|--7-7-7-7--------------------------------|
D|--7-7-7-7---9-9-9-9---7-7-7-7---5-5-5-5--|
A|--5-5-5-5---9-9-9-9---7-7-7-7---5-5-5-5--|
E|------------7-7-7-7---5-5-5-5---3-3-3-3--|
    * * * *   * * * *   * * * *   * * * *

PRE CHORUS
Guitars 1 and 2:
e|------x-x-x---------x-x-x-x--|------x-x-x---------x-x-x-x--|
B|------x-x-x---------x-x-x-x--|------x-x-x---------x-x-x-x--|
G|--7-7-x-x-x---------x-x-x-x--|------x-x-x---------x-x-x-x--|
D|--7-7-x-x-x---9-9-9-x-x-x-x--|--7-7-x-x-x---5-5-5-x-x-x-x--|
A|--5-5-x-x-x---9-9-9-x-x-x-x--|--7-7-x-x-x---5-5-5-x-x-x-x--|
E|------x-x-x---7-7-7-x-x-x-x--|--5-5-x-x-x---3-3-3-x-x-x-x--|

e|------x-x-x---------x-x-x-x--------------------------|
B|------x-x-x---------x-x-x-x--------------------------|
G|--7-7-x-x-x---------x-x-x-x--------------------------|
D|--7-7-x-x-x---9-9-9-x-x-x-x---5----------------------|
A|--5-5-x-x-x---9-9-9-x-x-x-x---5-Hold-----------------|
E|------x-x-x---7-7-7-x-x-x-x---3--------*pickslide*---|

CHORUS
Guitars 1 and 2:
e|-------------------|-------------------|-------------------|-------------------|
B|-------------------|-------------------|-------------------|-------------------|
G|--7-7-7-7-7-7-7-7--|-------------------|-------------------|-------------------|
D|--7-7-7-7-7-7-7-7--|--5-5-5-5-5-5-5-5--|--9-9-9-9-9-9-9-9--|--7-7-7-7-7-7-7-7--| x2
A|--5-5-5-5-5-5-5-5--|--5-5-5-5-5-5-5-5--|--9-9-9-9-9-9-9-9--|--7-7-7-7-7-7-7-7--|
E|-------------------|--3-3-3-3-3-3-3-3--|--7-7-7-7-7-7-7-7--|--5-5-5-5-5-5-5-5--|

BRIDGE
Guitar 1:
e|----------------|-------------------|----------------|-----------------------------|
B|----------------|-------------------|----------------|-----------------------------|
G|--7-7-----------|--7-7--------------|--7-7-----------|--7-7------------------------|
D|--7-7---5-------|--7-7---5--7-------|--7-7---5-------|--7-7---5---7-7-7-7-7-7-7-7--|
A|--5-5---5-Hold--|--5-5---5--7-Hold--|--5-5---5-Hold--|--5-5---5---7-7-7-7-7-7-7-7--|
E|--------3-------|--------3--5-------|--------3-------|--------3---5-5-5-5-5-5-5-5--|
                                                                      * * * * * * *

Guitar 2:
e|-------------------|----------------------|
B|-------------------|----------------------|
G|--7---9---11-------|--7---9---11--6-------|
D|--x---x---x--Hold--|--x---x---x---x-Hold--| x2
A|--5---7---9--------|--5---7---9---4-------|
E|-------------------|----------------------|

CHORUS
Guitars 1 and 2: (Guitar 2 comes in on the G5 chord)
e|--------------|-------------------|-------------------|-------------------|
B|--------------|-------------------|-------------------|-------------------|
G|--7--7--7--7--|-------------------|-------------------|-------------------|
D|--7--7--7--7--|--5-5-5-5-5-5-5-5--|--9-9-9-9-9-9-9-9--|--7-7-7-7-7-7-7-7--| 
A|--5--5--5--5--|--5-5-5-5-5-5-5-5--|--9-9-9-9-9-9-9-9--|--7-7-7-7-7-7-7-7--|
E|--------------|--3-3-3-3-3-3-3-3--|--7-7-7-7-7-7-7-7--|--5-5-5-5-5-5-5-5--|

e|-------------------|-------------------|-------------------|-------------------|
B|-------------------|-------------------|-------------------|-------------------|
G|--7-7-7-7-7-7-7-7--|-------------------|-------------------|-------------------|
D|--7-7-7-7-7-7-7-7--|--5-5-5-5-5-5-5-5--|--9-9-9-9-9-9-9-9--|--7-7-7-7-7-7-7-7--|
A|--5-5-5-5-5-5-5-5--|--5-5-5-5-5-5-5-5--|--9-9-9-9-9-9-9-9--|--7-7-7-7-7-7-7-7--|
E|-------------------|--3-3-3-3-3-3-3-3--|--7-7-7-7-7-7-7-7--|--5-5-5-5-5-5-5-5--|


OUTRO
Guitar 1:
e|------x-x-------x-x-------x-x-------------|------x-x-------x-x-----------|
B|------x-x-------x-x-------x-x-------------|------x-x-------x-x-----------|
G|--7-7-x-x-------x-x-------x-x----------6--|--7-7-x-x-------x-x-----------|
D|--7-7-x-x---9-9-x-x---7-7-x-x---5-5-x--7--|--7-7-x-x---9-9-x-x---5-------|
A|--5-5-x-x---9-9-x-x---7-7-x-x---5-5-x--4--|--5-5-x-x---9-9-x-x---5-Hold--|
E|------x-x---7-7-x-x---5-5-x-x---3-3-x-----|------x-x---7-7-x-x---3-------|

Guitar 2:
e|------10-9--------------|-------10-9----------|
B|----10----10--10h12-10--|-----10----10--------|
G|------------11----------|-------------11-9-7--|
D|-/12--------------------|--/12----------------|
A|------------------------|---------------------|
E|------------------------|---------------------|

*********************
| / - slide up
| h - hammer-on
| x - mute strings
| * - palm mute
*********************
Suggest correction
Creating personal tab
Creating personal tab
You can edit any tab online and save it as your Personal.

You can edit, replace or remove any tab part or add personal notes – all changes will be seen only by you.

Personal tabs can be accessed anytime from any device, even offline.
Learn more »
comments
print report bad tab
3 comments total.
0 reply
axel99booker 238 Jul 04, 2016 07:52 PM

didn't like this contribution

guest
You may want to rate the tab now too:
select rating
Wanna post a correction for this tab? Suggest correction