Oops, an error
Loading. Please wait.

In A Bottle Tab

911 views 1 this week
1 commentread comment
1 2 3 4 5
accurate
x 2
add to favorites
launch autoscroll
font size
0
reset
how to read this tab
guitar tuner
Tab Pro tools
  • play this tab
  • loop segment
  • change instrument
  • show fretboard
  • metronome
Autoscroll
slow
fast
+/-
esc
set tempo
stop
Contributor
-------------------------------------------------------------------------------
                             IN A BOTTLE - With Honor
-------------------------------------------------------------------------------
Tabbed by:BFMVowns
Email:mackgoth@charter.net

Tuning:drop d

ok this is a great song and there wasnt a tab for it so i thought id put one up. im not 
sure if the lead is correct, but im sure that the rhythm part is correct. i dont have 
clean outro figured out yet, but im working on it. enjoy!!!

intro

Gtr 1
e|------------------------------------|\
B|-3/55555555555555555555555555557788-| \
G|-------------------7--------------------|  \
D|----------------------------------------|  x2
A|----------------------------------------| /
D|----------------------------------------|

e|---------------------------------------|
B|-10-10-10-10-10-10-10-10-8-8-8-7-7-7-7-|
G|-7--7--7--7--7--7--7--7--7-7-7-7-7-7-7-|
D|---------------------------------------|
A|---------------------------------------|
D|---------------------------------------|


Verse
e|----------------------------------------|
B|----------------------------------------|
G|-9-9-9-12-12----------------------------|
D|-9-9-9-12-12-12-12-9-10-10-10-5-7-7-5-5-|
A|-7-7-7-10-10-12-12-9-10-10-10-5-7-7-5-5-|
D|-------------12-12-9-10-10-10-5-7-7-5-5-|

or

e|-----------------------------------|
B|-----------------------------------|
G|-9-9-9-12-12-7-7-4-5-5-5-----------|
D|-9-9-9-12-12-7-7-4-5-5-5-3-5-5-3-3-|
A|-7-7-7-10-10-5-5-2-3-3-3-3-5-5-3-3-|
D|-------------------------3-5-5-3-3-|

then

e|-----------------------------------|
B|-----------------------------------|
G|-9-9-9-12-12-7-7-7-----------------|
D|-9-9-9-12-12-7-7-7-2-2-2-2-2-2-2-2-|
A|-7-7-7-10-10-5-5-5-2-2-2-2-2-2-2-2-|
D|-------------------2-2-2-2-2-2-2-2-|

Riff
e|---------------------------------|
B|---------------------------------|
G|---------------------------------|
D|-5-5-5-5-5-5-5-5-0-0-0-0-0-0-0-0-|
A|-5-5-5-5-5-5-5-5-0-0-0-0-0-0-0-0-|
D|-5-5-5-5-5-5-5-5-0-0-0-0-0-0-0-0-|

Chorus [i think this is rite im not sure though]

Gtr 1
e|-------------------------------------------------------------------------------------|
B|-1010101010101010121212121212121217-17-17-17-17-17-17-17-13-13-13-13-15-15-15-15-----|
G|-------------------------------------------------------------------------------------|
D|-7-7-7-7-7-7-7-7-9-9-9-9-9-9-9-9-14-14-14-14-14-14-14-14-10-10-10-10-12-12-12-12-----|
A|-------------------------------------------------------------------------------------|
D|-------------------------------------------------------------------------------------|

Gtr 2
e|-----------------------------------------------------------------|
B|-----------------------------------------------------------------|
G|-----------------------------------------------------------------|
D|-5-5-5-5-5-5-5-5-0-0-0-0-0-0-0-0-2-2-2-2-2-2-2-2-2-2-2-2-2-2-2-2-|
A|-5-5-5-5-5-5-5-5-0-0-0-0-0-0-0-0-2-2-2-2-2-2-2-2-2-2-2-2-2-2-2-2-|
D|-5-5-5-5-5-5-5-5-0-0-0-0-0-0-0-0-2-2-2-2-2-2-2-2-2-2-2-2-2-2-2-2-|

e|-----------------------------------------------------------------|
B|-----------------------------------------------------------------|
G|-------------------------------------------------9-9-9-9-9-9-9-9-|
D|-5-5-5-5-5-5-5-5-0-0-0-0-0-0-0-0-2-2-2-2-2-2-2-2-9-9-9-9-9-9-9-9-|
A|-5-5-5-5-5-5-5-5-0-0-0-0-0-0-0-0-2-2-2-2-2-2-2-2-7-7-7-7-7-7-7-7-|
D|-5-5-5-5-5-5-5-5-0-0-0-0-0-0-0-0-2-2-2-2-2-2-2-2-----------------|

Ending

gtr 1
e|--------------------------------------------------------------------------------------------------|
B|-13-13-13-13-13-13-13-13-15-15-15-15-15-15-15-15-17-17-17-17-17-17-17-17-17-17-17-17-17-17-17-17--|
G|--------------------------------------------------------------------------------------------------|
D|-10-10-10-10-10-10-10-10-12-12-12-12-12-12-12-12-14-14-14-14-14-14-14-14-14-14-14-14-14-14-14-14--|
A|--------------------------------------------------------------------------------------------------|
D|--------------------------------------------------------------------------------------------------|

e|------------------------------------|
B|-1212121212121212121212121212121210-|
G|------------------------------------|
D|-9-9-9-9-9-9-9-9-9-9-9-9-9-9-9-9-7--|
A|------------------------------------|
D|------------------------------------|

ORDER:             ORDER:
Gtr 1-             Gtr 2-
intro              verse[palm mute]
verse[palm mute]   n/a
chorus             chorus
verse              verse
chorus             chorus
intro              verse[palm mute]
chorus             chorus to end
ending


| /  slide up
| \  slide down
| h  hammer-on
| p  pull-off
| ~  vibrato
| +  harmonic
| x  Mute note
===============================================================================
comments
We did not receive enough feedback on this tab! Please rate:
print report bad tab
1 2 3 4 5
1 comment total.
0 reply
Winter Solstice wrote on September 30 2007, 11:39 am

not really correct but you got the rythm almost right.

I want to post or [tab]
guest
You may want to rate the tab now too:
select rating
Please do not post tabs as comments. Select "correction" instead!