Oops, an error
Loading. Please wait.

Hell We Create Tab

800 views 1 this week
no commentswrite comment
1 2 3 4 5
1 last vote to show rating
add to favorites
launch autoscroll
font size
0
reset
how to read this tab
guitar tuner
Autoscroll
slow
fast
+/-
esc
set tempo
stop
Help us to improve Ultimate-Guitar.com Take our survey!
×
Author
-------------------------------------------------------------------------------
                   With One Last Breath - Hell We Create
-------------------------------------------------------------------------------
Tabbed by: maglehtim
Email: maglehtim@gmail.com



Tuning: Drop C
Intro: I've figured out the strumming pattern for the mutes, but not the other 
guitars notes inbetween the mutes.
? is when the other part is being played. Also haven't figured out whats played 
after the 8th frets chords.
Intro (0:04)
D|--------------------------------------------------------------------------|
A|--------------------------------------------------------------------------|
F|--------------------------------------------------------------------------|
C|--0-000000-0-00-00-0-----000-000-0000000-----8-8~-8-8~-8-8~-8-------------|
G|--0-000000-0-00-00-0--?--000-000-0000000--?--8-8~-8-8~-8-8~-8--?----------|
C|--0-000000-0-00-00-0-----000-000-0000000-----8-8~-8-8~-8-8~-8-------------|
    . ...... . .. .. .     ... ... .......

Outro Tapping (3:39) Listen or figure out how many times you play this on ur own. 
That goes for the whole tabbing part.
D|--------------------------------------------------------------|------------|
A|--------------------------------------------------------------|------------|end on
F|--------------------------------------------------------------|------------|this last
C|--T15p8T15p8T14p8---------------------------------------------|-T15p8T14p8-|bar then
G|--------------------------------------------------------------|------------|go to
C|--------------------------------------------------------------|------------|below

D|--------------------------------------------------------------|------------|
A|--------------------------------------------------------------|------------|
F|--------------------------------------------------------------|------------|
C|--T15p10T15p10T14p10------------------------------------------|T15p10T14p10|
G|--------------------------------------------------------------|------------|
C|--------------------------------------------------------------|------------|

D|--------------------------------------------------------------|------------|
A|--------------------------------------------------------------|------------|
F|--------------------------------------------------------------|------------|
C|--T17p12T14p12T15p12T15p12T14p12------------------------------|T15p12T14p12|
G|--------------------------------------------------------------|------------|
C|--------------------------------------------------------------|------------|

D|--------------------------------------------------------------|------------|
A|--------------------------------------------------------------|------------|
F|--------------------------------------------------------------|------------|
C|--T15p10T15p10T14p10------------------------------------------|T15p10T14p10|
G|--------------------------------------------------------------|------------|
C|--------------------------------------------------------------|------------|

D|--------------------------------------------------------------|------------|
A|--------------------------------------------------------------|------------|
F|--------------------------------------------------------------|------------|
C|--T15p8T15p8T14p8---------------------------------------------|-T15p8T14p8-|
G|--------------------------------------------------------------|------------|
C|--------------------------------------------------------------|------------|
this is as far as i figured out so far, it continues abit longer (the tapping that is)

Outro (3:52)
D|---------------------------------------------------------------------------|
A|---------------------------------------------------------------------------|repeat this
F|--9h10----9h10----10/12-10-9----9h10----9h10----10/14-12-10-9--------------|until about
C|-------10------10------------10------10------10----------------------------|the end i believe
G|---------------------------------------------------------------------------|
C|---------------------------------------------------------------------------|

PS. at one point during the outro they do a pinch harmonic on the 10th fret on the c string.
This is as far as I've come on this song so far. I'll probably update as I figure out more.
************************************

| /   slide up
| \   slide down
| h   hammer-on
| p   pull-off
| ~   sustain
| +   harmonic
| x   Mute note
| b   Bend
| pb  Pre-bend
| br  Bend release
| pbr Pre-bend release
| brb Bend release bend
| T   Tap
************************************
http://www.myspace.com/withonelastbreathofficial
Suggest correction
Give kudos to tab author, rate the tab!
1 2 3 4 5
comments
print report bad tab
guest
You may want to rate the tab now too:
select rating
Wanna post a correction for this tab? Suggest correction