Oops, an error
Loading. Please wait.

All I Need intro tab

version 1
version 1

Whole song

Interactive

15,002 views 6 this week
1 commentread comment
1 2 3 4 5
x 3
add to favorites
×
Save as Personal and add changes to this tab that will be seen only by you. Learn more ›
×
You can save this tab as Personal to edit and correct it or add notes. All changes will be seen only by you. Learn more »
launch autoscroll
font size
0
reset
how to read this tab
guitar tuner
edit
Autoscroll
slow
fast
+/-
esc
set tempo
stop
       Band        | Within Temptation |
       Song        |    All I Need     |
       Album     |The Heart Of Everything|


    Intro: Something Like This Not 100% Right
E||--------------------------------------------------------|
B||--------------------------------------------------------|
G||--------------------------------------------------------|
D||-------7-------7h--8--7----------7---7-8-7--5-------5---|
A||-----7------7------------------7------------------5-----|
E||--5-------------------------5------------------3--------|

---------------------------------------|
---------------------------------------|
---------------------------------------|
-----5h--6--5---------5---5-6-5--3--5--|
--5-----------------5------------------|
-----------------3---------------------| repeat 4 times

After the second time the vocals enter
Suggest correction
Creating personal tab
Creating personal tab
You can edit any tab online and save it as your Personal.

You can edit, replace or remove any tab part or add personal notes – all changes will be seen only by you.

Personal tabs can be accessed anytime from any device, even offline.
Learn more »
Give kudos to tab author, rate the tab!
1 2 3 4 5
comments
print report bad tab
1 comment total.
-1 reply
Spiran 10 Nov 05, 2007 10:58 AM

It dosen't sound too much like the song, but its good to play to anyway.

guest
You may want to rate the tab now too:
select rating
Wanna post a correction for this tab? Suggest correction