Oops, an error
Loading. Please wait.

Covered By Roses tab

version 1
version 1

Whole song

Interactive

52 views 6 this week
no commentswrite comment
1 2 3 4 5
1 last vote to show rating
add to favorites
×
Save as Personal and add changes to this tab that will be seen only by you. Learn more ›
×
You can save this tab as Personal to edit and correct it or add notes. All changes will be seen only by you. Learn more »
launch autoscroll
font size
0
reset
how to read this tab
guitar tuner
edit
Autoscroll
slow
fast
+/-
esc
set tempo
stop
----------------------------------------------------------------
|                         Within Temptation                    |
|                          Covered By Roses                    |
----------------------------------------------------------------
Artist   : Within Temptation
Album    : Hydra
Year     : 2014
Title    : Covered By Roses
Tabbed By: Fermi666 
Tuning   : Standart 6 String (EADGBE)


It's learnt by ear and i'm sorry for the mistake or missing any note
Every correction will be apreciated and i'll put your name on a credit


Intro
e|-------------------------------------------------------------|
b|-------------------------------------------------------------|
g|-------------------------------------------------------------|
D|-5-------------5---4-----2-----2-4-5-------------5---4-----2-|
A|-------------------------------------------------------------|
E|---0-0-0-0-0-0---0---0-0---0-0-------0-0-0-0-0-0---0---0-0---|
PM   . . . . . .   .   . . . . .       . . . . . .   .   . .     


e|---------------------------------------------------------------------|
b|---------------------------------------------------------------------|
g|---------------------------------------------------------------------|
D|-5-------------5---4-----2-----2-4-5-------------5---4-----2-----2-4-|
A|---------------------------------------------------------------------|
E|---0-0-0-0-0-0---0---0-0---0-0-------0-0-0-0-0-0---0---0-0---0-0-----|
PM   . . . . . .   .   . . . . . .     . . . . . .   .   . .   . . 


e|-----------------------------------------------------------------------|
b|-----------------------------------------------------------------------|
g|-----------------------------------------------------------------------|
D|-5-------------5---4-----2-----2-4-5-------------5---4-------------2-4-|
A|-----------------------------------------------------------------------|
E|---0-0-0-0-0-0---0---0-0---0-0-------0-0-0-0-0-0---0---0-0-0-0-0-0-----|
PM   . . . . . .   .   . . . . . .     . . . . . .   .   . . . . . .


e|---------------------------|
b|---------------------------|
g|---------------------------|
D|-5-------------5---4-----2-|
A|---------------------------|
E|---0-0-0-0-0-0---0---0-0---|
PM   . . . . . .   .   . .


Verse
e|-----------------------------------|
b|-----------------------------------|
g|------------------7-7-7-7----------|3X
D|-2-2-2-2-2-2-2-2--7-7-7-7--7-7-7-7-|
A|-2-2-2-2-2-2-2-2--5-5-5-5--7-7-7-7-|
E|---------------------------5-5-5-5-|
PM . . . . . . . .  . . . .  . . . .
  I fell my hearts explode to particles
  Love is always here and i told you so
  Restless in dreams, love carved in stone


And Then ...
e|------------------------------------------------------------|
b|------------------------------------------------------------|
g|-5-5-5-5-5-5-5-5--7-7-7-7-7-7-7-7-------------------7-7-7---|
D|-5-5-5-5-5-5-5-5--7-7-7-7-7-7-7-7--2-2-2-2-2-2-2-2--7-7-7-7-|
A|-3-3-3-3-3-3-3-3--5-5-5-5-5-5-5-5--2-2-2-2-2-2-2-2--5-5-5-7-|
E|----------------------------------------------------------5-|
PM . . . . . . . .  . . . . . . . .  . . . . . . . .  . . .
  This rhapsody of life in a way, i guess we all know it

e|----------------------------------------------------------|
b|----------------------------------------------------------|
g|----------------------------------------------------------|
D|----------------------------------------------------------|
A|-----9h10~-----5h6~------9h10~-----5h6~-----5h6~-----7h8~-|
E|-0-0-------0-0-------0-0-------0-0------0-0------0-0------|
PM . .       . .       . .       . .      . .      . .      
  Hand in hand we stand while watch it flow
  Heaven can you help us, no we can't go
  Whoooa whoooa

Chorus
e|-----------------------------------------------------------------------|
b|-----------------------------------------------------------------------|
g|-----------------------------------------------------------------------|
D|-5-------------5---4-------------4---5-------------4---5-----5\4-------|2x
A|-----------------------------------------------------------------------|
E|---0-0-0-0-0-0---0---0-0-0-0-0-0---0---0-0-0-0-0-0---0---0-0-----0-0-0-|
PM   . . . . . .   .   . . . . . .   .   . . . . . .   .   . .     . . .
  Covered by roses, when this dance is over
  We all know our beauty will die
  The choirs have awoken, left no words unspoken
  Remember you as long as I can


e|-----------------------------------------------------------------------| 
b|-----------------------------------------------------------------------|
g|-----------------------------------------------------------------------|  
D|-5-------------5---4-------------4---5-------------5---4-------------4-|2x
A|-----------------------------------------------------------------------|  
E|---0-0-0-0-0-0---0---0-0-0-0-0-0---0---0-0-0-0-0-0---0---0-0-0-0-0-0---|
PM   . . . . . .   .   . . . . . .   .   . . . . . .   .   . . . . . .
  Hold you in my arms all night
  And spill the wine until the end
  We all have our place in time
  Need to live every moment

e|-----------------------------------|
b|-----------------------------------|
g|-4-4-4-4-4-4-4-4--7-7-7-7----------|
D|-2-2-2-2-2-2-2-2--7-7-7-7--7-7-7-7-|2x
A|-2-2-2-2-2-2-2-2--5-5-5-5--7-7-7-7-|
E|---------------------------5-5-5-5-|
PM . . . . . . . .  . . . .  . . . .
  Whooa Whooa


e|-------------------------------------------------------------------------------------|
b|-------------------------------------------------------------------------------------|
g|-------------------------------------------------------------------------------------|
D|-------------------------------------------------------------------------------------|
A|-----9h10~-----5h6~------9h10~-----5h6~-----9h10~-----5h6~-----5h6~-----7h8~-----9h10|
E|-0-0-------0-0-------0-0-------0-0------0-0------0-0-------0-0------0-0------0-0-----|
PM . .       . .       . .       . .      . .      . .       . .      . .      . .
  We built our castles high, turned our dreams to gold
  We took the blows with pride, went through it all 
  The dawn is closing in, new tales are told
  This rhapsody of life in a way, I guess we all know

 
Chorus
e|-----------------------------------------------------------------------|
b|-----------------------------------------------------------------------|
g|-----------------------------------------------------------------------|
D|-5-------------5---4-------------4---5-------------4---5-----5\4-------|2x
A|-----------------------------------------------------------------------|
E|---0-0-0-0-0-0---0---0-0-0-0-0-0---0---0-0-0-0-0-0---0---0-0-----0-0-0-|
PM   . . . . . .   .   . . . . . .   .   . . . . . .   .   . .     . . .
  Covered by roses, when this dance is over
  We all know our beauty will die
  The choirs have awoken, left no words unspoken
  Remember you as long as I can


e|-----------------------------------------------------------------------| 
b|-----------------------------------------------------------------------|
g|-----------------------------------------------------------------------|  
D|-5-------------5---4-------------4---5-------------5---4-------------4-|2x
A|-----------------------------------------------------------------------|  
E|---0-0-0-0-0-0---0---0-0-0-0-0-0---0---0-0-0-0-0-0---0---0-0-0-0-0-0---|
PM   . . . . . .   .   . . . . . .   .   . . . . . .   .   . .     . . .
  Hold you in my arms all night
  And spill the wine until the end
  We all have our place in time
  Need to live every moment


e|---------------------------------------------------------------------------|
b|---------------------------------------------------------------------------|
g|---------------------44444444--77777777-----------44444444--77777777777777-|
D|-77777777--55555555--22222222--77777777-33333333--44444444--77777777777777-|
A|-77777777--55555555--22222222--55555555-33333333--22222222--55555555555555-|
E|-55555555--33333333---------------------55555555---------------------------|
  For all we are is falling stars in the night
  A blinding light raging down from the sky


e|-------------------------------------------------------------|
b|-------------------------------------------------------------|
g|---------------------44444444--77777777--5---5---5/7---7---7-|
D|-77777777--55555555--22222222--77777777--5---5---5/7---7---7\|
A|-77777777--55555555--22222222--55555555--3-3-3-3-3/5-5-5-5-5\|
E|-55555555--33333333------------------------------------------|
  The rise and fall, the rhapsody of our lives
  It's all we already know, we've got to let go


e|-------------------------|
b|-------------------------|
g|-------------------------|
D|-2-2-2-2-2-2-2-2-3-3-5-5-|4x
A|-2-2-2-2-2-2-2-2-3-3-5-5-|
E|-------------------------|
PM                 . . 


She dwells with beauty, beauty that must die
And joy, whose hand is ever at his lips
His soul shall taste the sadness of her might
And be among her clouded trophies hung


Covered by.. Covered by...
Chorus
e|-----------------------------------------------------------------------|
b|-----------------------------------------------------------------------|
g|-----------------------------------------------------------------------|
D|-5-------------5---4-------------4---5-------------4---5-----5\4-------|2x
A|-----------------------------------------------------------------------|
E|---0-0-0-0-0-0---0---0-0-0-0-0-0---0---0-0-0-0-0-0---0---0-0-----0-0-0-|
PM   . . . . . .   .   . . . . . .   .   . . . . . .   .   . .     . . .
  Covered by roses, when this dance is over
  We all know our beauty will die
  The choirs have awoken, left no words unspoken
  Remember you as long as I can


e|-----------------------------------------------------------------------| 
b|-----------------------------------------------------------------------|
g|-----------------------------------------------------------------------|  
D|-5-------------5---4-------------4---5-------------5---4-------------4-|2x
A|-----------------------------------------------------------------------|  
E|---0-0-0-0-0-0---0---0-0-0-0-0-0---0---0-0-0-0-0-0---0---0-0-0-0-0-0---|
PM   . . . . . .   .   . . . . . .   .   . . . . . .   .   . .     . . .
  Hold you in my arms all night 
  And spill the wine until the end
  We all have our place in time
  Need to live every moment


Sorry, i can't figure out the solo yet...
it's same as the chorus


Outro: Same as chorus



PM| Palm Mute
~ | Vibrato
/ | Slide Up
\ | Slide Down
Suggest correction
Creating personal tab
Creating personal tab
You can edit any tab online and save it as your Personal.

You can edit, replace or remove any tab part or add personal notes – all changes will be seen only by you.

Personal tabs can be accessed anytime from any device, even offline.
Learn more »
Give kudos to tab author, rate the tab!
1 2 3 4 5
comments
print report bad tab
guest
You may want to rate the tab now too:
select rating
Wanna post a correction for this tab? Suggest correction