Oops, an error
Loading. Please wait.

Ice Queen Bass

version 1
version 1

Whole song

Interactive

2,097 views 1 this week
no commentswrite comment
1 2 3 4 5
2 more votes to show rating
add to favorites
launch autoscroll
font size
0
reset
guitar tuner
×
Best way to learn
"Ice Queen"
Autoscroll
slow
fast
+/-
esc
set tempo
stop
Author
Within Temptation - Ice Queen
Note:  I don't know this is 100% correct  cuz I made it out of my head 
But it sounds oke 2 me  :->
Greetz Erwin

Riff #1           (it's a low C# if you have it) last time
G-----------------------------------------------|------------------
D-----------------------------------------------|------------------
A-------------------(444)-------------222--111--|22222222----2-1---
E-444--000----444---------444--000--------------|------------------
B-------------------(222)-----------------------|------------------

Riff #2
G-----------------------------------------------------------------
D-----------------------------------------------------------------
A-------------222-------------------------------------------------
E-444--000---------222--------------------------------------------

Riff #3                         1st time     second time
G------------------------------|-----------|-----------------------
D------------------------------|-----------|-----------------------
A--444\--------444\-------444\-|-222-------|-----------------------
E--------444/--------444/------|-----222---|-000 2222--------------

Riff #4 (idem)
G-----------------------------------------------------------------
D-----------------------------------------------------------------
A------(4)---------------------------------2-1--------------------
E-0-----------4------2------------0-----2-------4-----------------
B------(2)--------------------------------------------------------
Suggest correction
Give kudos to tab author, rate the tab!
1 2 3 4 5
comments
print report bad tab
guest
You may want to rate the tab now too:
select rating
Wanna post a correction for this tab? Suggest correction