Oops, an error
Loading. Please wait.

In The Middle Of The Night bass

1,208 views 3 this week
no commentswrite comment
1 2 3 4 5
3 more votes to show rating
add to favorites
×
Save as Personal and add changes to this tab that will be seen only by you. Learn more ›
×
You can save this tab as Personal to edit and correct it or add notes. All changes will be seen only by you. Learn more »
launch autoscroll
font size
0
reset
guitar tuner
edit
Autoscroll
slow
fast
+/-
esc
set tempo
stop
Intro 0:09
G|-----------------------------------------------------------------|
D|-----------------------------------------------------------------|
A|-----------------------------------------------------------------|
E|-----------------------------------------------------------------|
A|-3---------------------------------------------------------------|
   1 + 2 + 3 + 4 + 1 + 2 + 3 + 4 + 1 + 2 + 3 + 4 + 1 + 2 + 3 + 4 +

G|-----------------------------------------------------------------|
D|-----------------------------------------------------------------|
A|-------------------------------------------------6-------5-------|
E|-4-------------------------------6-------------------------------|
A|-----------------------------------------------------------------|
   1 + 2 + 3 + 4 + 1 + 2 + 3 + 4 + 1 + 2 + 3 + 4 + 1 + 2 + 3 + 4 +

G|-----------------------------------------------------------------|
D|-----------------------------------------------------------------|
A|-----------------------------------------------------------------|
E|-----------------------------------------------------------------|
A|-3-3-3-3-3-3-3-3-3-3-3-3-3-3-3-3-3-3-3-3-3-3-3-3-3-3-3-3-3-3-3-3-|
   1 + 2 + 3 + 4 + 1 + 2 + 3 + 4 + 1 + 2 + 3 + 4 + 1 + 2 + 3 + 4 +

G|-----------------------------------------------------------------|
D|-----------------------------------------------------------------|
A|-------------------------------------------------6-6-6-6-5-5-5-5-|
E|-4-4-4-4-4-4-4-4-4-4-4-4-4-4-4-4-6-6-6-6-6-6-6-6-----------------|
A|-----------------------------------------------------------------|
   1 + 2 + 3 + 4 + 1 + 2 + 3 + 4 + 1 + 2 + 3 + 4 + 1 + 2 + 3 + 4 +

0:29 Verse
G|-----------------------------------------------------------------|
D|-----------------------------------------------------------------|
A|-----------------------------------------------------------------|
E|-----------------------------------------------------------------|
A|-3-3-3-3-3-3-3-3-3-3-3-3-3-3-3-3-6-6-6-6-6-6-6-6-6-6-6-6-6-6-5-5-|
   1 + 2 + 3 + 4 + 1 + 2 + 3 + 4 + 1 + 2 + 3 + 4 + 1 + 2 + 3 + 4 +

G|-----------------------------------------------------------------|
D|-----------------------------------------------------------------|
A|-----------------------------------------------------------------|
E|-----------------------------1-------------------------3-3---6---|
A|-1-1-1-1-1-1-1-1-1-1-1-1-1-1-----3-3-3-3-3-3-3-3-3-3-3-----------|
   1 + 2 + 3 + 4 + 1 + 2 + 3 + 4 + 1 + 2 + 3 + 4 + 1 + 2 + 3 + 4 +

G|-----------------------------------------------------------------|
D|-----------------------------------------------------------------|
A|-----------------------------------------------------------------|
E|-----------------------------------------------------------------|
A|-3-3-3-3-3-3-3-3-3-3-3-3-3-3-3-3-6-6-6-6-6-6-6-6-6-6-6-6-6-6-6-6-|
   1 + 2 + 3 + 4 + 1 + 2 + 3 + 4 + 1 + 2 + 3 + 4 + 1 + 2 + 3 + 4 +

G|-----------------------------------------------------------------|
D|-----------------------------------------------------------------|
A|---------------------------------------------------------3-1-----|
E|-------------------------------------------------------------4-3-|
A|-1-1-1-1-1-1-1-1-1-1-1-1-1-1-1-1-3-3-3-3-3-3-3-3-3-3-3-3---------|
   1 + 2 + 3 + 4 + 1 + 2 + 3 + 4 + 1 + 2 + 3 + 4 + 1 + 2 + 3 + 4 +

G|-----------------------------------------------------------------|
D|-----------------------------------------------------------------|
A|-----------------------------------------------------------------|
E|-4-4-4-4-4-4-4-4-4-4-4-4-4-4-4-4-6-6-6-6-6-6-6-6-6-------3-------|
A|-----------------------------------------------------------------|
   1 + 2 + 3 + 4 + 1 + 2 + 3 + 4 + 1 + 2 + 3 + 4 + 1 + 2 + 3 + 4 +

G|-----------------------------------------------------------------|
D|-----------------------------------------------------------------|
A|-----------------------------------------------------------------|
E|-----------------------------------------------------------------|
A|-3-3-3-3-3-3-3-3-3-3-3-3-3-3-3-3-6-6-6-6-6-6-6-6-6-6-6-6-6-6-6-6-|
   1 + 2 + 3 + 4 + 1 + 2 + 3 + 4 + 1 + 2 + 3 + 4 + 1 + 2 + 3 + 4 +

G|-----------------------------------------------------------------|
D|-----------------------------------------------------------------|
A|-----------------------------------------------------------------|
E|-----------------------------------------------------------------|
A|-1-1-1-1-1-1-1-1-1-1-1-1-1-1-1-1-3-3-3-3-3-3-3-3-3-3-3-3-1-1-1-1-|
   1 + 2 + 3 + 4 + 1 + 2 + 3 + 4 + 1 + 2 + 3 + 4 + 1 + 2 + 3 + 4 +

Pre Chorus 1:01
G|-----------------------------------------------------------------|
D|-----------------------------------------------------------------|
A|-----------------------------------------------------------------|
E|-4-4-4-4-4-4-4-4-4-4-4-4-4-4-4-4-4-4-4-4-4-4-4-4-----------------|
A|-------------------------------------------------1-1-1-1-1-1-1-1-|
   1 + 2 + 3 + 4 + 1 + 2 + 3 + 4 + 1 + 2 + 3 + 4 + 1 + 2 + 3 + 4 +

G|-----------------------------------------------------------------|
D|-----------------------------------------------------------------|
A|-----------------------------------------------------------------|
E|-----------------------------------------------------------------|
A|-3-3-3-3-3-3-3-3-3-3-3-3-3-3-3-3-6-6-6-6-6-6-6-6-6-6-6-6-6-6-6-6-|
   1 + 2 + 3 + 4 + 1 + 2 + 3 + 4 + 1 + 2 + 3 + 4 + 1 + 2 + 3 + 4 +

G|-----------------------------------------------------------------|
D|-----------------------------------------------------------------|
A|-----------------------------------------------------------------|
E|-4-4-4-4-4-4-4-4-4-4-4-4-4-4-4-4-1-1-1-1-1-1-1-1-1-1-1-1-1-1-1-1-|
A|-----------------------------------------------------------------|
   1 + 2 + 3 + 4 + 1 + 2 + 3 + 4 + 1 + 2 + 3 + 4 + 1 + 2 + 3 + 4 +

G|-----------------------------------------------------------------|
D|-----------------------------------------------------------------|
A|-----------------------------------------------------------------|
E|-3-3-3-3-3-3-3-3-3-3-3-3-3-3-3-3-3-3-3-3-3-3-3-3-----------------|
A|-------------------------------------------------6-------5-------|
   1 + 2 + 3 + 4 + 1 + 2 + 3 + 4 + 1 + 2 + 3 + 4 + 1 + 2 + 3 + 4 +

Chorus 1:20
G|------------------------------------------------------------------|
D|o-----------------------------------------------------------------|
A|------------------------------------------------------------------|
E|o-----------------------------------------------------------------|
A|--3-3-3-3-3-3-3-3-3-3-3-3-3-3-3-3-3-3-3-3-3-3-3-3-3-3-3-3-3-3-3-3-|
    1 + 2 + 3 + 4 + 1 + 2 + 3 + 4 + 1 + 2 + 3 + 4 + 1 + 2 + 3 + 4 +

G|------------------------------------------------------------------|
D|-----------------------------------------------------------------o|
A|------------------------------------------------------------------|
E|-4-4-4-4-4-4-4-4-4-4-4-4-4-4-4-4-6-6-6-6-6-6-6-6-6-6-6-6-6-6-6-6-o|
A|------------------------------------------------------------------|
   1 + 2 + 3 + 4 + 1 + 2 + 3 + 4 + 1 + 2 + 3 + 4 + 1 + 2 + 3 + 4 +

G|-----------------------------------------------------------------|
D|-----------------------------------------------------------------|
A|-----------------------------------------------------------------|
E|-1-1-1-1-1-1-1-1-1-1-1-1-1-1-1-1-4-4-4-4-4-4-4-4-6-------3-------|
A|-----------------------------------------------------------------|
   1 + 2 + 3 + 4 + 1 + 2 + 3 + 4 + 1 + 2 + 3 + 4 + 1 + 2 + 3 + 4 +

Interlude 1:45
G|-----------------------------------------------------------------|
D|-----------------------------------------------------------------|
A|-----------------------------------------------------------------|
E|-----------------------------------------------------------------|
A|-3---3-------3-3-3---------------3-3-3-------3-3-3-----3-6---8---|
   1 + 2 + 3 + 4 + 1 + 2 + 3 + 4 + 1 + 2 + 3 + 4 + 1 + 2 + 3 + 4 +

G|-----------------------------------------------------------------|
D|-----------------------------------------------------------------|
A|-----------------------------------------------------------------|
E|---------------------------------------------------------8---\---|
A|-3-3-3-------3-3-3---------------3-3-3-------3-3-3---------------|
   1 + 2 + 3 + 4 + 1 + 2 + 3 + 4 + 1 + 2 + 3 + 4 + 1 + 2 + 3 + 4 +

Verse 1:55
G|-----------------------------------------------------------------|
D|-----------------------------------------------------------------|
A|-----------------------------------------------------------------|
E|---/-8-------3-------1-------------/-8-------3-------1-----------|
A|-3---------------------------6---3---------------------------6---|
   1 + 2 + 3 + 4 + 1 + 2 + 3 + 4 + 1 + 2 + 3 + 4 + 1 + 2 + 3 + 4 +

G|-----------------------------------------------------------------|
D|-----------------------------------------------------------------|
A|-----------------------------------------------------------------|
E|-----/-6-----1-----------------------/-8-----3-------1-----------|
A|-1-1-----------------6-------4---3---------------------------6---|
   1 + 2 + 3 + 4 + 1 + 2 + 3 + 4 + 1 + 2 + 3 + 4 + 1 + 2 + 3 + 4 +

G|-----------------------------------------------------------------|
D|-----------------------------------------------------------------|
A|-----------------------------------------------------------------|
E|-----------------------------------------------------------------|
A|-3-3-3-3-3-3-3-3-3-3-3-3-3-3-3-3-6-6-6-6-6-6-6-6-6-6-6-6-6-6-6-6-|
   1 + 2 + 3 + 4 + 1 + 2 + 3 + 4 + 1 + 2 + 3 + 4 + 1 + 2 + 3 + 4 +

G|-----------------------------------------------------------------|
D|-----------------------------------------------------------------|
A|-----------------------------------------------------------------|
E|-----------------------------------------------------------------|
A|-1-1-1-1-1-1-1-1-1-1-1-1-1-1-1-1-3-3-3-3-3-3-3-3-3-3-3-3-1-1-1-1-|
   1 + 2 + 3 + 4 + 1 + 2 + 3 + 4 + 1 + 2 + 3 + 4 + 1 + 2 + 3 + 4 +

2:14 Pre Chorus
G|-----------------------------------------------------------------|
D|-----------------------------------------------------------------|
A|-----------------------------------------------------------------|
E|-4-4-4-4-4-4-4-4-4-4-4-4-4-4-4-4-4-4-4-4-4-4-4-4-----------------|
A|-------------------------------------------------1-1-1-1-1-1-1-1-|
   1 + 2 + 3 + 4 + 1 + 2 + 3 + 4 + 1 + 2 + 3 + 4 + 1 + 2 + 3 + 4 +

G|-----------------------------------------------------------------|
D|-----------------------------------------------------------------|
A|-----------------------------------------------------------------|
E|-----------------------------------------------------------------|
A|-3-3-3-3-3-3-3-3-3-3-3-3-3-3-3-3-6-6-6-6-6-6-6-6-6-6-6-6-6-6-6-6-|
   1 + 2 + 3 + 4 + 1 + 2 + 3 + 4 + 1 + 2 + 3 + 4 + 1 + 2 + 3 + 4 +

G|-----------------------------------------------------------------|
D|-----------------------------------------------------------------|
A|-----------------------------------------------------------------|
E|-4-4-4-4-4-4-4-4-4-4-4-4-4-4-4-4-1-1-1-1-1-1-1-1-1-1-1-1-1-1-1-1-|
A|-----------------------------------------------------------------|
   1 + 2 + 3 + 4 + 1 + 2 + 3 + 4 + 1 + 2 + 3 + 4 + 1 + 2 + 3 + 4 +

G|-----------------------------------------------------------------|
D|-----------------------------------------------------------------|
A|-----------------------------------------------------------------|
E|-3-3-3-3-3-3-3-3-3-3-3-3-3-3-3-3-3-3-3-3-3-3-3-3-----------------|
A|-------------------------------------------------6-------5-------|
   1 + 2 + 3 + 4 + 1 + 2 + 3 + 4 + 1 + 2 + 3 + 4 + 1 + 2 + 3 + 4 +

2:32 Chorus
G|-----------------------------------------------------------------|
D|-----------------------------------------------------------------|
A|-----------------------------------------------------------------|
E|-----------------------------------------------------------------|
A|-3-3-3-3-3-3-3-3-3-3-3-3-3-3-3-3-3-3-3-3-3-3-3-3-3-3-3-3-3-3-3-3-|
   1 + 2 + 3 + 4 + 1 + 2 + 3 + 4 + 1 + 2 + 3 + 4 + 1 + 2 + 3 + 4 +

G|-----------------------------------------------------------------|
D|-----------------------------------------------------------------|
A|---------------------------------------------------------6---5---|
E|-4-4-4-4-4-4-4-4-4-4-4-4-4-4-4-4-6-6-6-6-6-6-6-6-6-6-6-----------|
A|-----------------------------------------------------------------|
   1 + 2 + 3 + 4 + 1 + 2 + 3 + 4 + 1 + 2 + 3 + 4 + 1 + 2 + 3 + 4 +

G|-----------------------------------------------------------------|
D|-----------------------------------------------------------------|
A|-----------------------------------------------------------------|
E|-----------------------------------------------------------------|
A|-3-3-3-3-3-3-3-3-3-3-3-3-3-3-3-3-3-3-3-3-3-3-3-3-3-3-3-3-3-3-3-3-|
   1 + 2 + 3 + 4 + 1 + 2 + 3 + 4 + 1 + 2 + 3 + 4 + 1 + 2 + 3 + 4 +

G|-----------------------------------------------------------------|
D|-----------------------------------------------------------------|
A|-----------------------------------------------------------------|
E|-4-4-4-4-4-4-4-4-4-4-4-4-4-4-4-4-6-6-6-6-6-6-6-6-6-6-6-6-3-3-3-3-|
A|-----------------------------------------------------------------|
   1 + 2 + 3 + 4 + 1 + 2 + 3 + 4 + 1 + 2 + 3 + 4 + 1 + 2 + 3 + 4 +

G|-----------------------------------------------------------------|
D|-----------------------------------------------------------------|
A|-----------------------------------------------------------------|
E|-1-1-1-1-1-1-1-1-1-1-1-1-1-1-1-1-4-4-4-4-4-4-4-4-6-------3-------|
A|-----------------------------------------------------------------|
   1 + 2 + 3 + 4 + 1 + 2 + 3 + 4 + 1 + 2 + 3 + 4 + 1 + 2 + 3 + 4 +

2:57 Bridge
G|------------------------------------------------------------------|
D|o-----------------------------------------------------------------|
A|------------------------------------------------------------------|
E|o-----------------------------------------------------------------|
A|------3-------3-------3-----4---------3-------3-------3-----1-----|
    1 + 2 + 3 + 4 + 1 + 2 + 3 + 4 + 1 + 2 + 3 + 4 + 1 + 2 + 3 + 4 +

G|------------------------------------------------------------------|
D|-----------------------------------------------------------------o|
A|------------------------------------------------------------------|
E|-----------------------------------------------------------2-----o|
A|-----3-------3-------3-----4---------3-------3-----1--------------|
   1 + 2 + 3 + 4 + 1 + 2 + 3 + 4 + 1 + 2 + 3 + 4 + 1 + 2 + 3 + 4 +

Rest

Pre Chorus 3:36
G|-----------------------------------------------------------------|
D|-----------------------------------------------------------------|
A|-----------------------------------------------------------------|
E|-----------------------------------------------------------------|
A|-3---------------------------------------------------------------|
   1 + 2 + 3 + 4 + 1 + 2 + 3 + 4 + 1 + 2 + 3 + 4 + 1 + 2 + 3 + 4 +

G|-----------------------------------------------------------------|
D|-----------------------------------------------------------------|
A|-------------------------------------------------6-------5-------|
E|-4-------------------------------6-------------------------------|
A|-----------------------------------------------------------------|
   1 + 2 + 3 + 4 + 1 + 2 + 3 + 4 + 1 + 2 + 3 + 4 + 1 + 2 + 3 + 4 +

G|------------------------------------------------------------------|
D|o-----------------------------------------------------------------|
A|------------------------------------------------------------------|
E|o-----------------------------------------------------------------|
A|--3-3-3-3-3-3-3-3-3-3-3-3-3-3-3-3-3-3-3-3-3-3-3-3-3-3-3-3-3-3-3-3-|
    1 + 2 + 3 + 4 + 1 + 2 + 3 + 4 + 1 + 2 + 3 + 4 + 1 + 2 + 3 + 4 +

G|------------------------------------------------------------------|
D|-----------------------------------------------------------------o|
A|-------------------------------------------------6-6-6-6-5-5-5-5--|
E|-4-4-4-4-4-4-4-4-4-4-4-4-4-4-4-4-6-6-6-6-6-6-6-6-----------------o|
A|------------------------------------------------------------------|
   1 + 2 + 3 + 4 + 1 + 2 + 3 + 4 + 1 + 2 + 3 + 4 + 1 + 2 + 3 + 4 +

Chorus 4:04
G|-----------------------------------------------------------------|
D|-----------------------------------------------------------------|
A|-----------------------------------------------------------------|
E|-----------------------------------------------------------------|
A|-3-3-3-3-3-3-3-3-3-3-3-3-3-3-3-3-3-3-3-3-3-3-3-3-3-3-3-3-3-3-3-3-|
   1 + 2 + 3 + 4 + 1 + 2 + 3 + 4 + 1 + 2 + 3 + 4 + 1 + 2 + 3 + 4 +

G|-----------------------------------------------------------------|
D|-----------------------------------------------------------------|
A|---------------------------------------------------------6---5---|
E|-4-4-4-4-4-4-4-4-4-4-4-4-4-4-4-4-6-6-6-6-6-6-6-6-6-6-6-----------|
A|-----------------------------------------------------------------|
   1 + 2 + 3 + 4 + 1 + 2 + 3 + 4 + 1 + 2 + 3 + 4 + 1 + 2 + 3 + 4 +

G|-----------------------------------------------------------------|
D|-----------------------------------------------------------------|
A|-----------------------------------------------------------------|
E|-----------------------------------------------------------------|
A|-3-3-3-3-3-3-3-3-3-3-3-3-3-3-3-3-3-3-3-3-3-3-3-3-3-3-3-3-3-3-3-3-|
   1 + 2 + 3 + 4 + 1 + 2 + 3 + 4 + 1 + 2 + 3 + 4 + 1 + 2 + 3 + 4 +

G|-----------------------------------------------------------------|
D|-----------------------------------------------------------------|
A|-----------------------------------------------------------------|
E|-4-4-4-4-4-4-4-4-4-4-4-4-4-4-4-4-6-6-6-6-6-6-6-6-6-6-6-6-3-3-3-3-|
A|-----------------------------------------------------------------|
   1 + 2 + 3 + 4 + 1 + 2 + 3 + 4 + 1 + 2 + 3 + 4 + 1 + 2 + 3 + 4 +

G|-----------------------------------------------------------------|
D|-----------------------------------------------------------------|
A|-----------------------------------------------------------------|
E|-1-1-1-1-1-1-1-1-1-1-1-1-1-1-1-1-4-4-4-4-4-4-4-4-6-------3-------|
A|-----------------------------------------------------------------|
   1 + 2 + 3 + 4 + 1 + 2 + 3 + 4 + 1 + 2 + 3 + 4 + 1 + 2 + 3 + 4 +

Outro
G|------------------------------------------------------------------|
D|o-----------------------------------------------------------------|
A|------------------------------------------------------------------|
E|o-----------------------------------------------------------------|
A|------3-------3-------3-----4---------3-------3-------3-----1-----|
    1 + 2 + 3 + 4 + 1 + 2 + 3 + 4 + 1 + 2 + 3 + 4 + 1 + 2 + 3 + 4 +

G|------------------------------------------------------------------|
D|-----------------------------------------------------------------o|
A|------------------------------------------------------------------|x3
E|-----------------------------------------------------------2-----o|
A|-----3-------3-------3-----4---------3-------3-----1--------------|
   1 + 2 + 3 + 4 + 1 + 2 + 3 + 4 + 1 + 2 + 3 + 4 + 1 + 2 + 3 + 4 +

G|-----------------------------------------------------------------|
D|-----------------------------------------------------------------|
A|-----------------------------------------------------------------|
E|-----------------------------------------------------------------|
A|-3---------------------------------------------------------------|
   1 + 2 + 3 + 4 + 1 + 2 + 3 + 4 + 1 + 2 + 3 + 4 + 1 + 2 + 3 + 4 +
Tabbed by Dave Vucko
Suggest correction
Creating personal tab
Creating personal tab
You can edit any tab online and save it as your Personal.

You can edit, replace or remove any tab part or add personal notes – all changes will be seen only by you.

Personal tabs can be accessed anytime from any device, even offline.
Learn more »
Give kudos to tab author, rate the tab!
1 2 3 4 5
comments
print report bad tab
guest
You may want to rate the tab now too:
select rating
Wanna post a correction for this tab? Suggest correction